Lionel Richie - Dancing On The Ceiling tab

-------------------------------------------------------------------------------

                 Dancing on the Ceiling Solo - Lionel Ritchie

-------------------------------------------------------------------------------

Tabbed by:gtfour1154



Tuning:E



e|-----------------------------------------------------12--13--15------15----|
B|------------------------8--10--12-(13) 12------------------------13------13|
G|-------5--5-(7)-5--7--7~---------------------12--10------------------------|
D|-5--7----------------------------------------------------------------------|
A|---------------------------------------------------------------------------|
E|---------------------------------------------------------------------------|



e|--15------------------12---------------------------------------------------|
B|------12~--(12)---15b----15b-15b-(13)---------15---------------------------|
G|--------------------------------------12---14b--(12)----12-----------------|
D|-----------------------------------------------------14--------------------|
A|---------------------------------------------------------------------------|
E|---------------------------------------------------------------------------|



e|---------------------------------------------------------------------------|
B|--10--12--12b-(10)-----------------15--15--15---(15)-----------------------|
G|-------------------12--10---14--12-----------------------------------------|
D|---------------------------------------------------------------------------|
A|---------------------------------------------------------------------------|
E|---------------------------------------------------------------------------|
Tap to rate this tab
 
# A B C D E F G H I J K L M N O P Q R S T U V W X Y Z