Song name
# A B C D E F G H I J K L M N O P Q R S T U V W X Y Z

Lionel Richie - Easy tab

This is the solo transcribed down a semitone into the key of G (much easier to play 
chords and sing in that key):

|----------------------------------------------|
|--------------6/8---8/------------------------|
|----------------------------------------------|
|---7b9r7-p5-----------------------------------|
|-------------------------(5)-7b9r7-p5-5---\---|
|----------------------------------------------|


|--------------10b12-6b7-----------------------------|
|------------------------8--6------------------------|
|------------------------------7--5--35b7r5p3-------|
|----7b9r7-p5------------------------------------5---|
|----------------------------------------------------|
|----------------------------------------------------|


|----------------------------------------------|
|--------------6/8---8/------------------------|
|----------------------------------------------|
|---7b9r7-p5-----------------------------------|
|-------------------------(5)-7b9r7-p5-5---\---|
|----------------------------------------------|


|--------------10b12-10-12-------10---7-------------------|
|--------------------------10b12----------10b12r10p8------|
|-----------------------------------------------------9---|
|----7b9r7-p5---------------------------------------------|
|---------------------------------------------------------|
|---------------------------------------------------------|

|------12--\--10-------------------|
|----------------------------------|
|------9---\---7-------------------|
|----------------------------------|
|----------------------------------|
|----------------------------------|

Have fun. All votes and comments gratefully received!
Tap to rate this tab
# A B C D E F G H I J K L M N O P Q R S T U V W X Y Z