Song name
# A B C D E F G H I J K L M N O P Q R S T U V W X Y Z

Lionel Richie - How Long tab

-----------------------------------------------------------------------------
                             How Long - Lionel Richie
-----------------------------------------------------------------------------
Tabbed by:Zayko*
E-mail:kislota666@inbox.lv

Tuning:Standart


e|---------------------------------------------------------------------------|
B|---------------------------------------------------------------------------|
G|---------------------------------------------------------------------------|
D|--11-11-11--10--11-11------11--10------------------------------------------|
A|-----------------------13----------13--11--13------------------------------|
E|-----------------------------------------------13--------------------------|

e|---------------------------------------------------------------------------|
B|---------------------------------------------------------------------------|
G|---------------------------------------------------------------------------|
D|--11-11-11--10--11--10--11------10--13--10--11------10---------------------|
A|----------------------------13------------------13------13-----------------|
E|---------------------------------------------------------------------------|

e|---------------------------------------------------------------------------|
B|---------------------------------------------------------------------------|
G|---------------------------------------------------------------------------|
D|--11-11-11--10--11-11------11--10------------------------------------------|
A|-----------------------13----------13--11--13------------------------------|
E|-----------------------------------------------13--------------------------|

e|---------------------------------------------------------------------------|
B|---------------------------------------------------------------------------|
G|---------------------------------------------------------------------------|
D|---------------------------------------------------------------------------|
A|--11-11-11--10--11-11------10--13--11--10----------------------------------|
E|-----------------------13------------------13-13---------------------------|

e|---------------------------------------------------------------------------|
B|---------------------------------------------------------------------------|
G|---------------------------------------------------------------------------|
D|--11--10--11--10-10--11--10------------------------------------------------|
A|-----------------------------13--11----------------------------------------|
E|---------------------------------------------------------------------------|

e|---------------------------------------------------------------------------|
B|---------------------------------------------------------------------------|
G|---------------------------------------------------------------------------|
D|--11--13--11------10-10--11--10--------------------------------------------|
A|--------------13-----------------13--11------------------------------------|
E|---------------------------------------------------------------------------|

e|----------------------------------------------------------------------------|
B|----------------------------------------------------------------------------|
G|----------------------------------------------------------------------------|
D|--11--10--11--10-10--11--10------------------------10----10----10-11-10-----|
A|-----------------------------13-11-13-11-13-11-13-----13----13-----------13-|
E|----------------------------------------------------------------------------|

************************************

| /   slide up
| \   slide down
| h   hammer-on
| p   pull-off
| ~   vibrato
| +   harmonic
| x   Mute note
| b   Bend
| pb  Pre-bend
| br  Bend release
| pbr Pre-bend release
| brb Bend release bend

************************************
Note: Sorry for last tab. i do it wrong so i hope you like this tab! :) Enjoy!
Practically you can use vibrato all the time in this song bu also you can use slide down 
after every line ends.
Tap to rate this tab
# A B C D E F G H I J K L M N O P Q R S T U V W X Y Z