Song name
# A B C D E F G H I J K L M N O P Q R S T U V W X Y Z

Lionel Richie - Three Times A Lady tab

-------------------------------------------------------------------------------
			     Three times a lady - Lionel Richie
-------------------------------------------------------------------------------
Tabbed by: Matt Hoare	
Email: matthoare@hotmail.com

Tuning: Std

				Verse

	Thanks for the  times  that  you've  given   me
e|------------------------------------------------1--------------------------|
B|-------2--------------2-----------------2-------1--------------------------|
G|-------2--------------2-----------------2-------2--------------------------|
D|-------2--------------2-----------------2-------3--------------------------|
A|-------0-------------------------------------------------------------------|
E|----------------------3-----------------2-------1--------------------------|

	The  memories  are  all  in  my   mind
e|------------------------------------------------1--------------------------|
B|-------2--------------2-----------------2-------1--------------------------|
G|-------2--------------2-----------------2-------2--------------------------|
D|-------2--------------2-----------------2-------3---------------------------|
A|-------0-------------------------------------------------------------------|
E|----------------------3-----------------2-------1--------------------------|

	and now, that we've come, to the end of our rainbow
e|------------------------------------------------1--------------------------|
B|-------2--------------2-----------------2-------1--------------------------|
G|-------2--------------2-----------------2-------2--------------------------|
D|-------2--------------2-----------------2-------3---------------------------|
A|-------0-------------------------------------------------------------------|
E|----------------------3-----------------2-------1--------------------------|

	there's something I must say out loud
e|------------------------------------------------1--------------------------|
B|-------2--------------2-----------------2-------1--------------------------|
G|-------2--------------2-----------------2-------2--------------------------|
D|-------2--------------2-----------------2-------3---------------------------|
A|-------0-------------------------------------------------------------------|
E|----------------------3-----------------2-------1--------------------------|

				Chorus

	You're once, twice, three times a lady and I love you.
e|--------------0-----0------0------------2----2-----0-----0-----------------|
B|--------------2-----0------0------------3----3-----2-----0-----------------|
G|--------------2-----1------0------------2----4-----2-----4-----------------|
D|--------------2-----2------0-----------------4-----2-----6-----------------|
A|--------------0------------2-----------------2-----0-----7-----------------|
E|--------------------4------3------------2----------------0-----------------|

    Yes you're once, twice, three times a lady and I love you.
e|--------------0-----0------0------------2----2-----0-----0-----------------|
B|--------------2-----0------0------------3----3-----2-----0-----------------|
G|--------------2-----1------0------------2----4-----2-----4-----------------|
D|--------------2-----2------0-----------------4-----2-----6-----------------|
A|--------------0------------2-----------------2-----0-----7-----------------|
E|--------------------4------3------------2----------------0-----------------|

===============================================================================
Tap to rate this tab
# A B C D E F G H I J K L M N O P Q R S T U V W X Y Z