Song name
# A B C D E F G H I J K L M N O P Q R S T U V W X Y Z

Lionel Richie - Lady You Bring Me Up tab

-------------------------------------------------------------------------------
			     SONG NAME - Band Name
-------------------------------------------------------------------------------
Tabbed by:Nick
Email:urickn@hotmail.com

Tuning:Standard

e|--------------------------------------------------------------------|
B|-4----3-------------------------------------------------------------|
G|-3----3---5---------3----1------------------------------------------|
D|-5----3---5--3------3----1------------------------------------------|
A|-3-------------5----------------------------------------------------|
E|----------4---------3----1------------------------------------------|


just a start I was messing with
Tap to rate this tab
# A B C D E F G H I J K L M N O P Q R S T U V W X Y Z