Song name
# A B C D E F G H I J K L M N O P Q R S T U V W X Y Z

Lionel Ritchie - Stuck On You tab

Highlighted       Show chord diagrams
-------------------------------------------------------------------------- 
  
   F    Am   B   C#

 :----1----0----1----3----:
 :----1----1----3----5----:
 :----2----2----3----5----:
 :----3----2----3----5----:
 :----3----0----1----3----:
 :----1----0----1----3----:

That's the main idea.

---------------------------------------------------------------------------
Tap to rate this tab
# A B C D E F G H I J K L M N O P Q R S T U V W X Y Z