Song name
# A B C D E F G H I J K L M N O P Q R S T U V W X Y Z

Lionel Ritchie - Hello tab

-------------------------------------------------------------------------------
			     Hello - Lionel Ritchie (Guitar Solo)
-------------------------------------------------------------------------------
Tabbed by: njrocker
Email: damon.marks@ymail.com

Tuning: Standard
                                         / \
e|---------------------------------------------------------------------------|
B|---------------------------------------------------------------------------|
G|----------7-9-10--7-9----7-------------9-7---------------------------------|
D|--7-9-10--------------10---9----10-9-7-------------------------------------|
A|7--------------------------------------------------------------------------|
E|---------------------------------------------------------------------------|
  /                           /  /
e|---------------------------------------------------------------------------|
B|--10--12-13-----12----10-----------------8---------------------------------|
G|9-----------14----12----9---9----------9---7-------------------------------|
D|------------------------------10----10-------------------------------------|
A|---------------------------------------------------------------------------|
E|---------------------------------------------------------------------------|
    p       p     p   p       p
e|---------------------------------------------------------------------------|
B|---------------------------------------------------------------------------|
G|9-10-9--7-9-7--------------------------------------------------------------|
D|---------------10-9-10-7--7-5-7--------------------------------------------|
A|---------------------------------------------------------------------------|
E|---------------------------------------------------------------------------|

  /                        
e|---------------------------------------------------------------------------|
B|--10--12-13-----12----10---------------------------------------------------|
G|9-----------14----12----9--------------------------------------------------|
D|---------------------------------------------------------------------------|
A|---------------------------------------------------------------------------|
E|---------------------------------------------------------------------------|

e|---------------------------------------------------------------------------|
B|---------------------------------------------------------------------------|
G|---------7-9-7-------------------------------------------------------------|
D|-------7-------------------------------------------------------------------|
A|----9----------------------------------------------------------------------|
E|10-------------------------------------------------------------------------|


************************************

| /   slide up
| \   slide down
| h   hammer-on
| p   pull-off
| ~   vibrato
| +   harmonic
| x   Mute note
| b   Bend
| pb  Pre-bend
| br  Bend release
| pbr Pre-bend release
| brb Bend release bend

************************************
Tap to rate this tab
 
# A B C D E F G H I J K L M N O P Q R S T U V W X Y Z