Song name
# A B C D E F G H I J K L M N O P Q R S T U V W X Y Z

Lions Lions - Tumbling tab

Lions Lions- Tumbling
myspace.com/lionslions
Standard tuning
Capo 4th fret

You can figure out how everything goes, but these are just basics. I hope. This is 
my first tab so… we’ll just see how it goes. I couldn’t really find any useful 
tabs for this song and I like it, so I hope you find this useful.

1st guitar- intro
e|----2----------5----------------------------|
B|--------3-5------------------3-5-33---5-----|
G|--------------------------------------------|[x5]
D|--------------------------------------------|
A|--------------------------------------------|
E|--------------------------------------------|

2nd Guitar- intro
e|--------------------------------------|
B|--------------------------------------|
G|--------------------------------------|[x5]
D|--------------------------------------|
A|---2--4-4--4--5-5---------------------|
E|----------------------3h5-------------|

1st guitar- throughout pretty much the whole song
Down/down/up/down/up
Open Asus4
e|--0--|
B|--3--|
G|--2--|
D|--2--|
A|--0--|
E|--0--|

2nd guitar- chorus(the verses pretty much go all the same)
e|-----------------------------------|
B|-----------------------------------|
G|-----------------------------------|
D|-----------------------------------|
A|-----------------------------------|
E|----7--------5-------3-------------|
Tap to rate this tab
 
# A B C D E F G H I J K L M N O P Q R S T U V W X Y Z