Song name
# A B C D E F G H I J K L M N O P Q R S T U V W X Y Z

Lions - Start Moving tab

start moving


lions


TRANSCRIBED BY RUDY GUZMAN


guzman_84@hotmail.com




   pick slide (back n fwd)                                
e:----------------------------------------|
B:----------------------------------------|
G:-x/x\x/x\x/x\x/x\x/x\x/x\---------------|
D:-x/x\x/x\x/x\x/x\x/x\x/x\----3-3-3-3--2-|
A:-----------------------------3-3-3-3--2-|
E:-----------------------------1-1-1-1--0-|

e:----------------------------------------------------------------------------------------|
B:----------------------------------------------------------------------------------------|
G:----------------------------------------------------------------------------------------|
D:-2------(2)---------2---------(2)---------2--------(2)---------2-------(2)-------2----7-|
A:-2------(2)---------2---------(2)---------2--------(2)---------2-------(2)-------2----5-|
E:-0------(0)---------0---------(0)---------0--------(0)---------0-------(0)-------0------|

                                       x4
e:---------------------------------------|
B:---------------------------------------|
G:----------9--7-7-7-7-7-9-9-9--12-12-12-|
D:----------x--x-x-x-x-x-x-x-x--x--x--x--|
A:-2--2-2---7--5-5-5-5-5-7-7-7--10-10-10-|
E:-0--0-0--------------------------------|

   verse                                 fdbk
e:------------------------------------------------------------|
B:------------------------------------------------------------|
G:------------------------------------------------------------|
D:-2------------------(2)-------------------------------7-----|
A:-2------------------(2)-------------------------------5-----|
E:-0------------------(0)-------------------------------------|

                                       x3
e:---------------------------------------|
B:---------------------------------------|
G:---------------------------------------|
D:---------------------------------------|
A:----------7--5-5-5-5-5-7-7-7--10-10-10-|
E:-0--0-0--------------------------------|


e:------------------------|
B:------------------------|
G:------------------7---5-|
D:------------------7---5-|
A:-2--2-2-2-2-2-2---5---3-|
E:-0--0-0-0-0-0-0---------|

e:-----------------------------|
B:-----------------------------|
G:-----------------------------|
D:---------------9---7-5---5-7-|
A:-2-2-2-2-2-2---7-------7-----|
E:-0-0-0-0-0-0-----------------|

e:--------------------|
B:--------------------|
G:--------------------|
D:--------9------5-7b-|
A:-2-2----7--5-7------|
E:-0-0----------------|

e:-----------------------------|
B:-----------------------------|
G:-----------------------------|
D:---------------9---7-5---5-7-|
A:-2-2-2-2-2-2---7-------7-----|
E:-0-0-0-0-0-0-----------------|

e:-----------------------|
B:-----------------------|
G:-----------------------|
D:--------9--------------|
A:-2-2----7--5-7-5---5---|
E:-0-0-------------8---8-|

e:----------------------------------------|
B:----------------------------------------|
G:--------6-------------------6------2-4b-|
D:--------4--4-2---2-4b-------4--2-4------|
A:-4-4-4---------4-------4-4--------------|
E:-2-2-2-----------------2-2--------------|

e:-----------------------------------------|
B:-----------------------------------------|
G:------6-------------------6--------------|
D:------4--4-2---2-4b-------4--2-4-2---2---|
A:-4-4---------4-------4-4-----------5---5-|
E:-2-2-----------------2-2-----------------|

e:------------------|
B:------------------|
G:------------------|
D:------------------|
A:-2-2------------2-|
E:-0-0------------0-|

   verse                                 fdbk
e:--------------------------------------------------------------|
B:--------------------------------------------------------------|
G:--------------------------------------------------------------|
D:-2------------------(2)-------------------------------7-------|
A:-2------------------(2)-------------------------------5---5Nh-|
E:-0------------------(0)---------------------------------------|

                                       x2
e:---------------------------------------|
B:---------------------------------------|
G:---------------------------------------|
D:---------------------------------------|
A:---------------------------------------|
E:-0--0-0---0--0-0-0-0-0-0-0-0--0--0--0--|

e:---------------------------------------|
B:---------------------------------------|
G:---------------------------------------|
D:---------------------------------------|
A:----------7--5-5-5-5-5-7-7-7--10-10-10-|
E:-0--0-0--------------------------------|

e:------------------------|
B:------------------------|
G:------------------7---5-|
D:----2-2-2-2-2-2---7---5-|
A:-2--2-2-2-2-2-2---5---3-|
E:-0--0-0-0-0-0-0---------|

e:-----------------------------|
B:-----------------------------|
G:-----------------------------|
D:---------------9---7-5---5-7-|
A:-2-2-2-2-2-2---7-------7-----|
E:-0-0-0-0-0-0-----------------|

e:--------------------|
B:--------------------|
G:--------------------|
D:--------9------5-7b-|
A:-2-2----7--5-7------|
E:-0-0----------------|

e:-----------------------------|
B:-----------------------------|
G:-----------------------------|
D:---------------9---7-5---5-7-|
A:-2-2-2-2-2-2---7-------7-----|
E:-0-0-0-0-0-0-----------------|

e:-----------------------|
B:-----------------------|
G:-----------------------|
D:--------9--------------|
A:-2-2----7--5-7-5---5---|
E:-0-0-------------8---8-|

e:----------------------------------------|
B:----------------------------------------|
G:--------6-------------------6------2-4b-|
D:--------4--4-2---2-4b-------4--2-4------|
A:-4-4-4---------4-------4-4--------------|
E:-2-2-2-----------------2-2--------------|

e:-----------------------------------------|
B:-----------------------------------------|
G:------6-------------------6--------------|
D:------4--4-2---2-4b-------4--2-4-2---2---|
A:-4-4---------4-------4-4-----------5---5-|
E:-2-2-----------------2-2-----------------|

e:------------------|
B:------------------|
G:------------------|
D:------------------|
A:-2-2------------2-|
E:-0-0------------0-|

                  
e:--------------------|
B:--------------------|
G:--------------------|
D:--------------------|
A:-2-2------------2-x-|
E:-0-0------------0-x-|

                                       x8
e:---------------------------------------|
B:---------------------------------------|
G:----------9--7-7-7-7-7-9-9-9--12-12-12-|
D:----------x--x-x-x-x-x-x-x-x--x--x--x--|
A:-2--2-2---7--5-5-5-5-5-7-7-7--10-10-10-|
E:-0--0-0--------------------------------|

   gt2 solo
e:-15bf--------------------------------------------------------------------|
B:-------------------------------------------------------------------------|
G:-------------------------12-14-12---------------------------10ahb--------|
D:--------14~~~--14-12--14----------14-12-12-14~~~------------------12-----|
A:--------------------------------------------------12-10-12b--------------|
E:-------------------------------------------------------------------------|

       wah                                                          wah
e:-15b---------------------------------------------------------------------------|
B:------0--------------------------------------------------------------15-----15-|
G:------0----------------------------------12-14-12-14bp12------12-14b----14b----|
D:-------------------------------12~~~--14-----------------14~~------------------|
A:-------------------------12-14-------------------------------------------------|
E:---------12-10--10-12-15-------------------------------------------------------|


e:-----------------------------------------------------------------------------------|
B:-----------------------------------------------------------------------------------|
G:-9-9-9-9-9-10-10-10-11-11-11-12-12-12-13-13-13-14-14-14-15-15-15-16-16-16-17-17-17-|
D:-x-x-x-x-x-x--x--x--x--x--x--x--x--x--x--x--x--x--x--x--x--x--x--x--x--x--x--x--x--|
A:-7-7-7-7-7-8--8--8--9--9--9--10-10-10-11-11-11-12-12-12-13-13-13-14-14-14-15-15-15-|
E:-0---------------------------------------------------------------------------------|

e:-----------------------------------------------------------------|
B:-----------------------------------------------------------21-22-|
G:-18-18-18-19-19-19-20-20-20-21-21-21-22-22-22-23-23-24-24--x--x--|
D:-x--x--x--x--x--x--x--x--x--x--x--x--x--x--x--x--x--x--x---18-19-|
A:-16-16-16-17-17-17-18-18-18-19-19-19-20-20-20-21-21-22-22--------|
E:-----------------------------------------------------------------|

e:------------------------------------------------------------|
B:------------------------------------------------------------|
G:------------------------------------------------------------|
D:-2----------------------------------------------------------|
A:-2----------------------------------------------------------|
E:-0----------------------------------------------------------|


http://www.myspace.com/lionstheband    myspace
http://www.lionstheband.net/           website

hillo son mex

23/02/10
Tap to rate this tab
# A B C D E F G H I J K L M N O P Q R S T U V W X Y Z