Lions - Girl From The North Country tab

This is a fantastic cover of Bob Dylan's song "girl from the north country", featured in 
the TV show Sons of Anarchy.

I've only managed to figure out the main guitar track for this great song, haven't 
managed to crack the solo yet.

You can figure out the exact timing from the song

Intro:
e-----------|
B-----------|
G-12--8-----|
D-12--8--8--|
A-10--6--8--|
E--------6--|


Verse:
e-----------|
B-----------|
G-12--8-----|
D-12--8--8--|
A-10--6--8--|
E--------6--|


Instrumental (after the second and third verses)
e------------------|
B------------------|
G-12--10--7--8-----|
D-12--10--7--8--8--|
A-10--8---5--6--8--|
E---------------6--|

If the instrumental above doesn't sound quite right then you can try tremlo picking this instead:

e--------------------|
B--------------------|
G--------------------|
D--------------------|
A-10--8--5--6--8-----|
E-----------------6--|


That's pretty much the notes for the whole song, with slight variation for timing etc.

Hope it's alright!
Tap to rate this tab
 
# A B C D E F G H I J K L M N O P Q R S T U V W X Y Z