Song name
# A B C D E F G H I J K L M N O P Q R S T U V W X Y Z

Lior - Sitting With A Stranger tab

Lior - Sitting With A Stranger

This is the first song I've ever tabbed, and it took me about a day.
I think it's pretty accurate, apart from the solo which i couldn't figure
out, and the chords, which are played too softly to be tabbed easily.
Please tell me what you think! eitan_muir@yahoo.com.au :)

enjoy! :)

Tuning: Half a Step Down (eb,Bb,Gb,Db,Ab,Eb)


[] = anything between brackets is played on bass
~  = Whammy/Vibrato


Verse

e--------------------------------------------------------------------------|
B-----------------------------------------------6---------------8~~--------|
G-------------9-10-------------10-9---------------7-----------6~~----------|
D-------------9-10-------------10-9----------------------------------------|
A[-----5--5-------------3--3-------------1--1----------0--0----------------|
E--------------------------------------------------------------------------|


End Verse With:

e--------------------------------------------------------------------------|
B-----------------------------------------------6--------------------------|
G--------------9-10-------------10-9---------------7--6--------------------|
D--------------------------------------------------------------------------|
A[-----5--5--------------3--3------------1--1------------------------------|
E--------------------------------------------------------------------------|


Chorus:

e------5-----5---------5-----5-----------8---------------8----------------|
B---------6---------------6-----------8-----8---------8-----8-------------|
G---7---------------6--------------6---------------6----------------------|
D-------------------------------------------------------------------------|
A-------------------------------------------------------------------------|
E-------------------------------------------------------------------------|

e--------9-----9-----------9-----9---------9-----9---------9-----9--------|
B-----------9-----------------9---------------8---------------8-----------|
G----8----------------8---------------6---------------6-------------------|
D-------------------------------------------------------------------------|
A-------------------------------------------------------------------------|
E-------------------------------------------------------------------------|


(Play chords as you would in normal tuning (eg. F# here is actually F, but have your 
in the position for what F# is in Standard Tuning[E barred on the second fret]. You know 
I mean..))

F#
And love in a desert
E				D
Will always be wondering what it's missing out on
F#
And peace in infested waters
E                       D
Can never make itself at home
D
So c'mon


[Solo]


F#
Cause if this love is our home
E			D		    F# (no 1st string)
Then why am I trying to break down the walls?
Tap to rate this tab
 
# A B C D E F G H I J K L M N O P Q R S T U V W X Y Z