Song name
# A B C D E F G H I J K L M N O P Q R S T U V W X Y Z

Lior - Roses On The Road Side tab

its not complete i just gave it a go...


intro/verse
e-----3---2---0---1---3---3---3---|
b-----3---2---0---1---3---3---3---|
g-----3---2---1---3---5---7---3---|
d-----5---4---2---3---5---7---5---|
a-----5---4---2---1---3---5---5---|
e-----3---2---0---1---3---5---3---|


bridge
----7---2---3---|
----7---2---3---|
----9---4---5---|
----9---4---5---|
----7---2---3---|
----7---2---3---|

chor
----0---3---         ---5---3-|
----0---3---         ---5---3-|
----1---5---(times 3)---7---3-|
----2---5---         ---7---5-|
----2---3---         ---5---5-|
----0---3---         ---5---3-|

play to strumming of song..
anyway thats it my guitar skills arent very good..
Tap to rate this tab
# A B C D E F G H I J K L M N O P Q R S T U V W X Y Z