Song name
# A B C D E F G H I J K L M N O P Q R S T U V W X Y Z

Lior - Bedouin Song tab

-------------------------------------------------------------------------------
			     Bedouin Song by LIOR
-------------------------------------------------------------------------------

Tabbed by Hayden Jose
haydskies@gmail.com

Beautiful song by Aussie artist Lior.  I searched and waited for a tab for this song for 
best part of two years but last week finally

decided to write one myself.  It is the first tab I've written, so sorry if anything is 
- it seems to be fairly accurate but feel

free to modify it as you will if you think there are problems.  Email me at 
with any questions, enjoy!

CAPO ON 6, standard tuning


**** Intro: ****

Relaxed timing in intro, with feeling

--------------------|----------------------|
-----------------3~-|-------------1~-------|
----0-2-0h2p0-------|---------0------0-----|
----0-0-0-----2-----|-------0---4----------|
--------------------|----0h2---------------|
--3-----------------|--3-------------------|


**** Verse 1 and 3 (they are the same, so after the bridge come back up here): ****

(Verse1) " Leaving the western shadows.... "
and  (Verse3) " While black desert rain / Runs through my veins... "

-------------------|-----------------|----------------|--------------------|
----3-3-3-------3--|------------1----|------------3---|--------------------|
----0-2-0h2p0------|--------0------0-|--------0-----0-|------0---0---0-----|
----0-0-0-----2----|------0---4------|------0---4-----|---0--0h2-0h2-0-0---|
-------------------|---0h2-----------|---0h2----------|---0h2----------2\0-|
--3----------------|-3---------------|-3--------------|-3------------------|

-------------------|-----------------|----------------|--------------------|
----3-3-3-------3--|------------1----|------------3---|--------------------|
----0-2-0h2p0------|--------0------0-|--------0-----0-|------0---0---------|
----0-0-0-----2----|------0---4------|------0---4-----|---0--0h2-0---------|
-------------------|---0h2-----------|---0h2----------|---0h2------------0-|
--3----------------|-3---------------|-3--------------|-3------------------|


(Verse1) " Ooh, and the madness of black desert rain ... "
and (Verse3) " Wild moon above / Go on tell me there is love ... "

-------------------|-------------------|---------------0--|-------------------|
----0--------0-----|-----3-------3-----|------0-----------|-----3-------3-----|
-------0--------0--|--------0-------0--|--------0-------0-|--------0-------0--|
----2--------2-----|-----2-------2-----|------2-------2---|-----3-------3-----|
---------4---------|--3--------3-------|-3/4-------4------|--1--------1-------|
-0-----------------|-------------------|------------------|-------------------|


---------------------|---------------------|-----------------|
-----5--------3p1-0--|----3--3---3--3--3---|------------1----|
--------0-----0------|----0--2-2h4--2--0---|--------0------0-|
-----5---------------|----0--0---0--0--0---|------0---4------|  At end of Verse 3, scroll to
--3--------0---------|---------------------|---0h2-----------|	bottom for ending
---------------------|--3------------------|-3---------------|


**** Verse 2 (slightly different, so I transcribed the whole lot): ****

" Heading east ... "

-------------------|-----------------|--------------------|----------------|
----3-3-3-------3--|------------1----|--------------------|------------3---|
----0-2-0h2p0------|--------0------0-|------0---0---0-----|--------0-----0-|
----0-0-0-----2----|------0---4------|---0--0h2-0h2-0-0---|------0---4-----|
-------------------|---0h2-----------|---0h2----------2\0-|---0h2----------|
--3----------------|-3---------------|-3------------------|-3--------------|

-------------------|-----------------|----------------|--------------------|
----3-3-3-------3--|------------1----|------------3---|--------------------|
----0-2-0h2p0------|--------0------0-|--------0-----0-|------0---0---------|
----0-0-0-----2----|------0---4------|------0---4-----|---0--0h2-0---------|
-------------------|---0h2-----------|---0h2----------|---0h2--------------|
--3----------------|-3---------------|-3--------------|-3------------------|

" And the cool night will flow ... "

-------------------|-------------------|---------------0--|-------------------|
----0--------0-----|-----3-------3-----|------0-----------|-----3-------3-----|
-------0--------0--|--------0-------0--|--------0-------0-|--------0-------0--|
----2--------2-----|-----4-------4-----|------2-------4---|-----3-------3-----|
---------4---------|--3--------3-------|-3/4-------4------|--1--------1-------|
-0-----------------|-------------------|------------------|-------------------|


---------------------|---------------------|-------------------|
-----5--------3p1-0--|----3--3---3--3--3---|---------------3---|
--------0-----0------|----0--2-2h4--2--0---|--------0--------0-|
-----5---------------|----0--0---0--0--0---|------0---4-/5-----|
--3--------0---------|---------------------|---0h2-------------|
---------------------|--3------------------|-3-----------------|


**** Bridge: ****


" Ohh, Bedouin song / is all I really need ... "

-----------------|---------------------|-------------------|-------------0---------\
-----0------0----|-----1--------1---1--|------3--------3---|-----1-----------------\
-------0------0--|--------0------------|--------2--------2-|-------0--------0---\--\ repeat once,
-----2------2----|-----2--------0h2----|------4--------4---|-----2-------2---------\ then end with ...
-----------------|--3--------3---------|--2---------2------|--0-------0------------\
--0------0-------|---------------------|-------------------|-----------------------\

Relaxed timing again, with feeling, pause on final note

-----------------|-----------------|
-----3------3----|-----3-------3~--|
-------0------0--|-------0----0----|
-----4------4----|-----4-----4-----|
-/5-------5------|--5-------5------|
-----------------|-----------------|

Go back up for Verse 3

**** Ending: ****

(2nd time) " Wild moon above / Go on tell me there is love ... "
-------------------|-------------0-----|---------------0--|
----0--------0-----|-----3-------------|------0-----------|
-------0--------0--|--------0-------0--|--------0-------0-|
----2--------2-----|-----2-------2-----|------2-------2---|
---------4---------|--3--------3-------|-3/4-------4------|
-0-----------------|-------------------|------------------|


-------------------|---------------------|----------------|------------------|
-----3-------3-----|-----5--------3\1-0--|------------1---|-----------3------|
--------0-------0--|--------0-----0------|--------0-----0-|---------2--------|
-----3-------3-----|-----5---------------|------0---4-----|-------0----------|
--1--------1-------|--3--------0---------|---0h2----------|-----x------------|
-------------------|---------------------|-3--------------|---3--------------|


| /  slide up
| \  slide down
| h  hammer-on
| p  pull-off
| ~  vibrato
| x  Mute note
Tap to rate this tab
# A B C D E F G H I J K L M N O P Q R S T U V W X Y Z