Song name
# A B C D E F G H I J K L M N O P Q R S T U V W X Y Z

Liquido - Saturday Rocks tab

Just listen 15 Minutes to the Song and tabed my first Song because nobody tabed
"Saturday Rocks" before :D

Intro/Verse (only Bass but you can play this):

--------------------------------------------------|
--------------------------------------------------|
--------------------------------------------------|
--------------------------------------------------|   x12
--------------------------------------------------|
---5-5-5-5-5---4-4-4-4---2-0-0-0---0-0-0-2--------|

Chours:


----------------------------------------------------------------------|
----------------------------------------------------------------------|
----------------------------------------------------------------------|
--------------------9-9-9-9-9-9-9-9---7-7-7-7-7-7-7-7-7-7-7-7-7-7-7-7-|    x3
-7-7-7-7-7-7-7-7----7-7-7-7-7-7-7-7---5-5-5-5-5-5-5-5-5-5-5-5-5-5-5-5-|
-5-5-5-5-5-5-5-5------------------------------------------------------|

Verse (only Bass again but you can play this):

--------------------------------------------------|
--------------------------------------------------|
--------------------------------------------------|
--------------------------------------------------|   x6
--------------------------------------------------|
---5-5-5-5-5---4-4-4-4---2-0-0-0---0-0-0-2--------|

Chours:


----------------------------------------------------------------------|
----------------------------------------------------------------------|
----------------------------------------------------------------------|
--------------------9-9-9-9-9-9-9-9---7-7-7-7-7-7-7-7-7-7-7-7-7-7-7-7-|    x6
-7-7-7-7-7-7-7-7----7-7-7-7-7-7-7-7---5-5-5-5-5-5-5-5-5-5-5-5-5-5-5-5-|
-5-5-5-5-5-5-5-5------------------------------------------------------|


Solo:

-----------------------------------------------------------------|
-----------------------------------------------------------------|
-9-7-6--6-6-6-6-6-6---9-7-6--6-6-6-6-6-6-------------------------|     x2
-------------------------------------------7-7-x-7-7-7-x-7-------|
-------------------------------------------5-5-x-5-5-5-x-5-------|
-----------------------------------------------------------------|


-----------------------------------|
-----------------------------------|
--9---7^-9-------------------------|
-------------7-7-x-7-7-7-x-7-------|    x2
-------------5-5-x-5-5-5-x-5-------|
-----------------------------------|


Outro:


-----------x-x------x-x--------|
-----------x-x------x-x--------|
-----------x-x------x-x--------|
-----------x-x------x-x--------|
-----------x-x------x-x--------|
-----------x-x------x-x--------|

Have Fun ;-)
Tap to rate this tab
# A B C D E F G H I J K L M N O P Q R S T U V W X Y Z