Song name
# A B C D E F G H I J K L M N O P Q R S T U V W X Y Z

Liquido - Play Some Rock tab

Artist: Liquido
Song: 	Play Some Rock
www: 	http://www.liquido.de
Tabbed by MarkL (markl@satkovscamp.de)

Chorus
   F     Bb    G      C       D
e|-------------------------------------------------------------|
B|-------------------------------------------------------------|
G|-------3------------5-5-5-5-7-7-7-7--------------------------|
D|-3-----3-8x--5------5-5-5-5-7-7-7-7--------------------------|
A|-3-8x--1-----5-8x---3-3-3-3-5-5-5-5--------------------------|
E|-1-----------3-----------------------------------------------|

Riff A (during the verses)
e|-------------------------------------------------------------|
B|-------------------------------------------------------------|
G|-------------------------------------------------------------|
D|-10-8-10-8-7-3-10-8-10-8-7-3-5--5-2-2-3-5--------------------|
A|-------------------------------------------------------------|
E|-------------------------------------------------------------|


Riff B ("I'm not the only one, I'm not...")
e|-------------------------------------------------------------|
B|-------------------------------------------------------------|
G|---------5---------------------------------------------------|
D|---7-----5-8x--3---------------------------------------------|
A|---7-8x--3-----3-8x------------------------------------------|
E|---5-----------1---------------------------------------------|
Tap to rate this tab
 
# A B C D E F G H I J K L M N O P Q R S T U V W X Y Z