Song name
# A B C D E F G H I J K L M N O P Q R S T U V W X Y Z

Lisa Debenedictis - Good Dancer tab

---------------------------------------------------------------------------
           	     THE GOOD DANCER - Lisa Debenedictis
---------------------------------------------------------------------------
Tabbed by: Leah

Tuning: Standard

This is actually a song full of piano, but here's the guitar version.  
I know it is right because I've played it on the piano.


Verse/Main Riff:

              C                             Am

e|-----------------------------------0-------------0-------|
B|--------1-----------1----------------1-------------1-----|
G|------0---0-------0---0----------------2-------------2---|
D|----2-------2---2-------2-------2-------------2----------|
A|--3-----------3---------------0-------------0------------|
E|----------------------------0-------------0--------------|

              F                            Gsus
e|--------1-----------1--------------2--2--2--2-2-2--2-----|
B|-----1----1-------1---1------------2--2--2--2-2-2--2-----|
G|---2--------2---2-------2----------0--0--0--0-0-0--0-----|
D|-3------------3------------------------------------------|
A|---------------------------------------------------------|
E|---------------------------------------------------------|

Chorus Chords (I play bar chords.):


Eb            C            F     
   I still remember--the steam rising outside

       Bb
Open window

             Eb             D              C                   F                    G
   And your eyes--shifting side to side, touching your face, looking around like a liar

G#
   But you were a good dancer.



Transition Back to Verse:

B   C



===========================================================================










Tap to rate this tab
 
# A B C D E F G H I J K L M N O P Q R S T U V W X Y Z