Song name
# A B C D E F G H I J K L M N O P Q R S T U V W X Y Z

Lisa Germano - Ruminants chords

Highlighted       Show chord diagrams
Intro:

|---------------|---------------|---------------|---------------|
|----5---5---5--|----5---5---5--|----5---5---5--|----5---5---5--|
|--5---5---5----|--4---4---4----|--2---2---2----|--4---4---4----|  x2
|---------------|---------------|---------------|---------------|
|---------------|---------------|---------------|---------------|
|---------------|---------------|---------------|---------------|


|---------------|------------------|
|----5---5---5--|----10---10---10--|
|--5---5---5----|--10---10---10----|  x2
|---------------|------------------|
|---------------|------------------|
|---------------|------------------|

C  Dm  G  C


Verse:
C
Ruminants

Dm
Four stomachs

G  
Throw up

      C
Start over

C
I need

Dm
Four stomachs

   G
To deal

   C
To deal


C  Dm  G  C


C
Hogwash

    Dm
Bulldozer

G           C
Wail out of order

C
Order

Dm
Order

G
Order

  C
Another


Am  Em  Am  G  F



Verse:
C
Graceful

  Dm
Sonata

G      C 
Sugary cover

C
Brainwashed

Dm
Hogwash

     G
Come on


Am  Em  Am  G  F

C  Dm  G  C



Verse:
C
Ruminants

Dm
Four stomachs

G 
Throw up

C
Start over

C  
I need

Dm
Four stomachs

   G
To deal

   C
To deal 

C
Tap to rate this tab
 
# A B C D E F G H I J K L M N O P Q R S T U V W X Y Z