Song name
# A B C D E F G H I J K L M N O P Q R S T U V W X Y Z

Lisa Hannigan - Splishy Splashy tab

artist: lisa hannigan
song: splishy splashy
http://www.lisahannigan.ie

intro x2
 e||---------0-------0-------0---------------0-------0-------0-------||
 b||------10------10------10------10------10------10------10------10-||
 g||.--11------11------11------11------11------11------11------11---.||
 d||.0-------------------------------0------------------------------.||
 a||-----------------------------------------------------------------||
 e||-----------------------------------------------------------------||

verse
 e|---------0-------0-------0---------------0-------0-------0-------|
 b|------10------10------10------10------10------10------10------10-|
 g|---11------11------11------11------11------11------11------11----|
 d|-0-------------------------------0-------------------------------|
 a|-----------------------------------------------------------------|
 e|-----------------------------------------------------------------|

 e|---------0-------0-------0---------------0-------0-------0-------|
 b|------10------10------10------10------10------10------10------10-|
 g|---11------11------11------11------11------11------11------11----|
 d|-0-------------------------------0-------------------------------|
 a|-----------------------------------------------------------------|
 e|-----------------------------------------------------------------|

 e|---------0-------0-------0---------------0-------0-------0-------|
 b|------10------10------10------10------10------10------10------10-|
 g|---11------11------11------11------11------11------11------11----|
 d|-0-------------------------------0-------------------------------|
 a|-----------------------------------------------------------------|
 e|-----------------------------------------------------------------|

 e|---------0-------0-------0---------------0-------0---------------|
 b|------10------10------10------10------10------10------10------10-|
 g|---11------11------11------11------11------11------11------11----|
 d|-0-------------------------------0-----------------------9-------|
 a|-----------------------------------------------------------------|
 e|-----------------------------------------------------------------|

chorus
 e|---------0-------0-----------------------0-------0---------------|
 b|------10------10------10------10------10------10------10------10-|
 g|---11------11------11------11------11------11------11------11----|
 d|-10----------------------10------9-----------------------9-------|
 a|-----------------------------------------------------------------|
 e|-----------------------------------------------------------------|

 e|---------0-------0-----------------------0-------0---------------|
 b|------11------11------11------10------10------10------10------10-|
 g|---11------11------11------11------11------11------11------11----|
 d|-8-----------------------10------9-----------------------9-------|
 a|-----------------------------------------------------------------|
 e|-----------------------------------------------------------------|

 e|---------0-------0-----------------------0-------0---------------|
 b|------10------10------10------10------10------10------10------10-|
 g|---11------11------11------11------11------11------11------11----|
 d|-10----------------------10------9-----------------------9-------|
 a|-----------------------------------------------------------------|
 e|-----------------------------------------------------------------|

 e|---------0-------0-----------------------------------------------|
 b|------11------11------11------11---------------------------------|
 g|---11------11------11------11------------------------------------|
 d|-8-----------------------8-------0-------------------------------|
 a|-----------------------------------------------------------------|
 e|-----------------------------------------------------------------|

verse

2nd chorus x4
 e||---------0-------0-----------------------0-------0---------------|
 b||------10------10------10------10------10------10------10------10-|
 g||.--11------11------11------11------11------11------11------11----|
 d||.10----------------------10------9-----------------------9-------|
 a||-----------------------------------------------------------------|
 e||-----------------------------------------------------------------|

 e|---------0-------0-----------------------0-------0---------------||
 b|------11------11------11------10------10------10------10------10-||
 g|---11------11------11------11------11------11------11------11---.||
 d|-8-----------------------8------9-----------------------9-------.||
 a|-----------------------------------------------------------------||
 e|-----------------------------------------------------------------||


"aaah aaaahhh" (2:30)
 e|---------0-------0-----------------------0-------0---------------|
 b|------10------10------10------11------10------10------10------10-|
 g|---11------11------11------11------11------11------11------11----|
 d|-8-----------------------8-------9-----------------------9-------|
 a|-----------------------------------------------------------------|
 e|-----------------------------------------------------------------|

 e|---------0-------0-----------------------0-------0---------------|
 b|------10------10------10------11------10------10------10------10-|
 g|---11------11------11------11------11------11------11------11----|
 d|-8-----------------------8-------9-----------------------9-------|
 a|-----------------------------------------------------------------|
 e|-----------------------------------------------------------------|

 e|---------0-------0-----------------------0-------0---------------|
 b|------11------11------11------11------10------10------10------10-|
 g|---11------11------11------11------11------11------11------11----|
 d|-8-----------------------8-------9-----------------------9-------|
 a|-----------------------------------------------------------------|
 e|-----------------------------------------------------------------|

 e|---------0-------0---------------|
 b|------10------10------10------11-|
 g|---11------11------11------11----|
 d|-8-----------------------8-------|
 a|---------------------------------|
 e|---------------------------------|

end
 e|---------0-------0-------0---------------0-------0-------0-------|
 b|------10------10------10------10------10------10------10------10-|
 g|---11------11------11------11------11------11------11------11----|
 d|-0-------------------------------0-------------------------------|
 a|-----------------------------------------------------------------|
 e|-----------------------------------------------------------------|

 e|---------0-------0-------0---------------0-------0-------0-------|
 b|------10------10------10------10------10------10------10---------|
 g|---11------11------11------11------11------11------11------11-9-7|
 d|-0-------------------------------0-------------------------------|
 a|-----------------------------------------------------------------|
 e|-----------------------------------------------------------------|
Tap to rate this tab
 
# A B C D E F G H I J K L M N O P Q R S T U V W X Y Z