Song name
# A B C D E F G H I J K L M N O P Q R S T U V W X Y Z

Lisa Loeb - Kick Start tab

Kick Start - Lisa Loeb - Cake and Pie

Tune guitar down one whole step (D).  The chords should be 
picked and arpeggiated in this sort of pattern (although it varies...)

|---0-----0------0------0-------|
|-----------0------0------0-----|
|---4--4------4------4------4---|
|-------------------------------|
|-------------------------------|
|---0---------------------------|

The A chord (X02220) is often changed to A5 (X02200) as well as 
the B chord: (X024440) to (X024400).  Just play around with it until it sounds the best :)

|---0---0---0---0---0---|----0---0---0---0---0---0----|
|---0---0---0---4---2---|----0---0---0---0---2---4----|
|---4---4---4---4---2---|----4---4---4---3---2---4----|
|-----------6---4---2---|------------6---2---2---4----|
|-------6---4---2---0---|--------6---4---4---0---2----|
|---0-------------------|----0------------------------|
                         (start singing)

|---0---0---0---0---|---0---0---0---0--|--0---0---0---0---0---0---|
|---0---0---0---0---|---0---0---0---4--|--0---0---0---0---2---4---|
|---4---4---4---2---|---4---4---4---4--|--4---4---4---3---2---4---|
|-----------6---2---|-----------6---4--|----------6---2---2---4---|
|-------6---4---0---|-------6---4---2--|------6---4---4---0---2---|
|---0---------------|---0--------------|--0-----------------------|
 (repeat above tab)

|---0---0---0---0---0---0---|---0---0---------0----|
|---0---0---0---0---0---4---|---0---0---0-4h--0----|
|---4---4---4---3---2---4---|---4---4--(4)----2----|
|-----------6---2---2---4---|-----------6-----2----|
|-------6---4---4---0---2---|-------6---4-----0----|
|---0-----------------------|---0------------------|

|---0---0---------0----|---0---0---------0----|---0---|
|---0---0---0-4h--0----|---0---0---0-4h--0----|---0---|
|---4---4--(4)----2----|---4---4--(4)----2----|---4---|
|-----------6-----2----|-----------6-----2----|-------|
|-------6---4-----0----|-------6---4-----0----|-------|
|---0------------------|---0------------------|---0---|

Transcribed by Jocelyn Pierpont jociep@hotmail.com
www.angelfire.com/co3/trinity/lisa.html
Tap to rate this tab
 
# A B C D E F G H I J K L M N O P Q R S T U V W X Y Z