Guitaretab - guitar tabs
Song name
# A B C D E F G H I J K L M N O P Q R S T U V W X Y Z

Lisa Loeb - The Way It Really Is tab

The Way It Really Is - Lisa Loeb - Cake and Pie

Tune down one whole step (D). 

Iím still working on the first bridge... Iíve almost got it. The 2nd bridge should be pretty much right.

Verses:
|----------------|--------------|----------------|------------------|
|----------------|--------------|----------------|------------------|
|----------------|--------------|----------------|------------------|
|------5------3--|----1------0--|------5------3--|----1------0-1h-0-|
|---3------------|--------------|---3------------|------------------|
|----------4-----|-1------3-----|----------4-----|-1------3---------|

Bridge 1:
|--------------------------------|----------------------------|
|-----------8--------------8-----|--------8-------------------|
|----------(8)------------(8)----|-------(8)------8-----7-----|
|-------8-------8------8------8--|-----8-----8----8-----8-----|
|---6----------------------------|----------------6-----------|
|-------------------6------------|--8-------------------6-----|  (2x)   

|--------------------------------|---------------------------|---3---|
|-----------8--------------8-----|--------8-----------(0)----|---3---|
|----------(8)------------(8)----|-------(8)-----------8-----|---4---|
|-------8-------8------8------8--|-----8-----8------9-----9--|---5---|
|---6----------------------------|---------------------------|---5---|
|-------------------6------------|--8------------7-----------|---3---|
                                                             strum for
                                                                 2 msrs
Chorus:
|----------------|--------------|----------------|------------------|
|----------------|--------------|----------------|------------------|
|----------------|--------------|----------------|------------------|
|------5------3--|----1------0--|------5------3--|----1------0-1h-0-|
|---3------------|--------------|---3------------|------------------|
|----------4-----|-1------3-----|----------4-----|-1------3---------|

Bridge 2: (strum)
|---4---|---6---|---8---|---8---|---4---|---6---|---8---|---8---|
|---4---|---6---|---8---|---8---|---4---|---6---|---8---|---8---|
|---5---|---7---|---8---|---8---|---5---|---7---|---8---|---8---|
|---6---|---8---|---10--|---10--|---6---|---8---|---10--|---10--|
|---6---|---8---|---10--|---10--|---6---|---8---|---10--|---10--|
|---4---|---6---|---8---|---8---|---4---|---6---|---8---|---8---|
                 looking...      lazy... so I... to look...

*Alternate chorus power chords (for a second guitar):
|---3-----4----|---1-----3----|
|---4-----4----|---1-----3----|
|---5-----5----|---1-----4----|
|---5-----6----|---3-----5----|
|---3-----6----|---3-----5----|
|---------4----|---1-----3----|
   Cm	    G#	 Fm	 G


Based off tab by T?a Smith (tealou@iinet.net.au) 
Transcribed by Jocelyn Pierpont (jociep@hotmail.com)
www.angelfire.com/co3/trinity/lisa.html
[ Tab from: http://www.guitaretab.com/l/lisa-loeb/22810.html ]
Related for The Way It Really Is tab