Song name
# A B C D E F G H I J K L M N O P Q R S T U V W X Y Z

Lisa Loeb - Do You Sleep? tab

Do You Sleep? - Lisa Loeb - Tails

Chords
       EAGDBe
C#5    x46600
F#     244322
E      022100
Esus   022200
G      355400  Open stringed chord
A(open)577600  Open stringed chord
B      799800  Open stringed chord
E(open)079900  Open stringed chord
A      x02220
Asus   x02200
A#4    577855  or 577800 or x02440
C#m    x46654
F#m7   x42222
G#m7   x64444


e--------0--------0----------0----------|    (two times)
B-----0-----------0-------0--------0----|
G--------6--------6----------6-----6----|
D-----6--------6----------6-------------|
A--4-------------------4----------------|
E-----------5-------------------5-------|

E-------------0-----------------0----------------0---------------0----|
B-------0--------0-----------0-----0-------0--------0---------0-----0-|
G----------6-------6---------6----------------6-------6-------6-------|
D----6-----------------------6----------6---------------------6-------|
A-4----------------------------------4--------------------------------|
E----------------------5--5-----------------------------5--5----------|


                                   F#             A     Asus
e----------------0-----------------2--2--xx--2----0--0--0-------------|
B----------0--------0---------0----2--2--xx--2----2--2--0-------------|
G-------------6--------0------6----3--3--xx--3----2--2--2-------------|
D-------6---------------------6----4--4--xx--4----2--2--2-------------|
A----4-----------------------------4--4--xx--4----0--0--0-------------|
E------------------------5--5------2--2--xx--2------------------------|
                                   (right here the electrit guitar just
                                   appegiates the F# and Asus chords).


     Here Play the G and A chords as open stringed chords
     G  355400   and    A 577600    But with a normal E chord

     And also the B, E and A pattern as open chords
     E  079900    and   B   799800    and   A  577600


  E                     G A
I saw you as you walked across my room.  
                                     G        E  Esus E
You looked out the window you looked at the moon.
                             G  A
And you sat on the corner of my bed, 
                                             G     E Esus  E
And you smoked with the ghost in the back of my head.

    E            B    E           B E       B      A           B
Now I don't know, and I don't care, if I ever will see you again.
E          B      E          B E       B      A          B
I don't know, and I don't care if I ever will be there,  oh......

    (from here go back to the appegiated riff from the beginning and do
    that again, then proceed with these chords)

    A#4          C#m                 A#4             
You kick my foot under the table.  I kick you back; 
C#m                     A#4           C#m             G#m7    A(open)
I can't say I'm able to stand for you or fall for you ever again.
A#4      C#m 		    A#4          C#m
Wish for a perfect setting? Wishing that I am letting you
A#4           C#m             G#m7    A
take me where you want me all over again?
F#m7       G#m7     C#m  F#m7    G#m7  C#m      A(open)     
You can't give your self absolutely to some one else.  

     E           B     E           B E      B       A           B
Now I don't know, and I don't care, if I ever will see you again.
E          B      E          B E       B       A        B
I don't know, and I don't care if I ever will be there

         E                     G A
‘Cause I saw you as you walked across my room.  
                                    G         E  Esus E
You looked out the window you looked at the moon.
                             G  A
And you sat on the corner of my bed, 
                                             G     E Esus  E
And you smoked with the ghost in the back of my head.

(from here it's back to the beginning verse followed by the opening intro to the end the song with a C#5 open chord  x46600)

Adapted from transcription by Adam Rogoyski (apoc@laker.net)
by Jocelyn Pierpont (jociep@hotmail.com)
www.angelfire.com/co3/trinity/lisa.html
Tap to rate this tab
 
# A B C D E F G H I J K L M N O P Q R S T U V W X Y Z