Song name
# A B C D E F G H I J K L M N O P Q R S T U V W X Y Z

Lisa Loeb - Stay tab

Jan Aguilar
(got this from SaskStrum off his youtube vid but made one minor adjustment
somewhere around the last chorus which I saw from one of Lisa Loeb's video) 

Capo 6


INTRO 1x
|-------11---------------------------------------------------------16---|
|-----9-----------9----11---------11-----------13-----------14---14-----|
|---6----------10---10----------6----6-------6----6-------6----6--------|
|------------8----------------------------------------------------------|
|-----------------------------------------------------------------------|
|----------------------------11--------11/13--------13/14---------------|



VERSE 1 (2x)
|-------11---------------------------------------------------------16---|
|-----9-----------9----11---------11-----------13-----------14---14-----|
|---6----------10---10----------6----6-------6----6-------6----6--------|
|------------8----------------------------------------------------------|
|-----------------------------------------------------------------------|
|----------------------------11--------11/13--------13/14---------------|
                    


CHORUS
        Am7    G5           C9    Cm      Am7    G5
|--------6-----9------|-----9-----9---|----6-----9----------------------|
|--------7-----9------|-----9-----10--|----7-----9----------------------|
|--------6-----6--(4x)|-----6-----11--|----6-----6--(2x)----------------|
|--------8-----6------|-----8-----11--|----8-----6----------------------|
|--------6-----x------|-----9-----9---|----6-----x----------------------|
|--------------9------|---------------|----------9----------------------|


VERSE 2
|-------11-------------------6--------6--------6-----9-----------|
|-----9-----------9----11----11-------13-------14----9-----------|
|---6----------10---10-------6--------6--------6-----6-----------|
|------------8---------------------------------------6-----------|
|----------------------------------------------------x-----------|
|----------------------------11----11/13----13/14----9-----------|
                    
          
|---6--------6--------16-----------------------------------------|
|---11-------13-------14-----------------------------------------|
|---6--------6--------6------------------------------------------|
|----------------------------------------------------------------|
|----------------------------------------------------------------|
|---11----11\13----13/14-----------------------------------------|
          



CHORUS 2
        Am7    G5               Cm             
|--------6-----9------|---11----9-----------------------------16----|
|--------7-----9------|---11----10-------11-----------13------14----|
|--------6-----6--(8x)|---11----11-----6----6-------6----6----6-----|
|--------8-----6------|---13----11----------------------------------|
|--------6-----x------|---13----9-----------------------------------|
|--------------9------|---11---------11-------11/13--------13/14----|


        Am7    G5           C9    Cm      Am7    G5
|--------6-----9------|-----9-----9---|----6-----9----------------------|
|--------7-----9------|-----9-----10--|----7-----9----------------------|
|--------6-----6--(4x)|-----6-----11--|----6-----6--(2x)----------------|
|--------8-----6------|-----8-----11--|----8-----6----------------------|
|--------6-----x------|-----9-----9---|----6-----x----------------------|
|--------------9------|---------------|----------9----------------------|


	   Cm
|----11----9------------------------------------------16----------|
|----11----10---------11-----------13-----------14--14------------|
|----11----11-------6----6-------6----6-------6----6--------------|
|----13----11-----------------------------------------------------|
|----13----9------------------------------------------------------|
|----11----------11--------11/13--------13/14---------------------|
          


OUTRO (2x)
|-------11---------------------------------------------------------16---|
|-----9-----------9----11---------11-----------13-----------14---14-----|
|---6----------10---10----------6----6-------6----6-------6----6--------|
|------------8----------------------------------------------------------|
|-----------------------------------------------------------------------|
|----------------------------11--------11/13--------13/14---------------|
Tap to rate this tab
 
# A B C D E F G H I J K L M N O P Q R S T U V W X Y Z