Guitaretab - guitar tabs
Song name
# A B C D E F G H I J K L M N O P Q R S T U V W X Y Z

Lisa Miskovsky - Still Alive tab

Mirror’s Edge – Still Alive TAB

e|--------------------------|
B|--------------------------|
G|---8--(8)--8--6-----------|
D|-----------------8--------|
A|--------------------------|
E|--------------------------|

e|--------------------------------|
B|--------------------------------|
G|-------6--6--6------------------|
D|---6----------------------------|
A|------------------9--8---8--9---|
E|--------------------------------|
[ Tab from: http://www.guitaretab.com/l/lisa-miskovsky/177691.html ]
e|---------------------|
B|---7-6—---7-6—---7---|
G|------6------6-------|
D|---------------------|  (2x)
A|---------------------|
E|---------------------|


e|---------------------|
B|---9-7----7-6----7---|
G|------6------6-------|
D|---------------------|
A|---------------------|
E|---------------------|

e|------------------|
B|---7-6----7-6-----|
G|------6------6----|
D|--------------8---|
A|------------------|
E|------------------|

...Start over--
Related for Still Alive tab
Advertisement will be closed in 10 seconds