Song name
# A B C D E F G H I J K L M N O P Q R S T U V W X Y Z

Lisa Mitchell - Neopolian Dreams tab

Help us improve GuitareTab! Take a short survey!
This is a simple song to learn especially for begginers learning how to finger pick. 
People have made different ways of playing this already but this is how i play it. 
Have fun and i hope it helps


e|---------------------------------------------------------|
B|----------------------------1-1-1----1-1-1-1-------------|
G|---0-0-0-0----1-1---1-------2-2-2----2-2-2-2-------------|
D|---2-2--2-----2---2--------2-2-2-0--3-3-3-3--------------|
A|--3-3-3------2-2---2-------------------------------------|
E|---------------------------------------------------------|

Chorus
     
e|----------------------------------------|
B|--------------1-1-1-1-------------------|
G|---0-0--1-1---2-2-2-2-------------------|
D|---2-2--2-2--3-3-3-3--------------------|
A|--3-3--2-2------------------------------|
E|----------------------------------------|
Related for Neopolian Dreams tab