Song name
# A B C D E F G H I J K L M N O P Q R S T U V W X Y Z

Lisa Mitchell - Neopolian Dreams tab

e--------------------------------------------------------------------------|
b----1----1----1----1------0----0----0---0-----1----1-----1----1-----------|
g----0----0----0----0------0----0----0---0----2----2-----2----2------2---2-|
d--------------------------------------------------------------------3---3-|
a--3----3----3----3------2----2----2---2----0----0----0----0------0----0---|
e--------------------------------------------------------------------------|

e--------------|
b--------------|
g----2----2----|
d----3----3----|
a-0----0-------|
e--------------|


it's basicly just C Em Am and F :) 
Tap to rate this tab
 
# A B C D E F G H I J K L M N O P Q R S T U V W X Y Z