Song name
# A B C D E F G H I J K L M N O P Q R S T U V W X Y Z

Lisa Mitchell - Neopolitan Dreams tab

Neopolitan Dreams-Lisa Mitchell


Intro:
e|-----------------------------------------------------------------------|
B|---------------------------------1---1-----------1---1-----------------|
G|--------------------1-------1----0---0---0---0---2---2---2---2---------|
D|---2--2--2--2---0-------0------2---2---2---2---3---3---3---3-----------|
A|-3--3--3--3---2---2---2---2--------------------------------------------|
E|-----------------------------------------------------------------------|

e|-----------------------------------------------------------------------|
B|---------------------------------1---1-----------1---1-----------------|
G|--------------------1-------1----0---0---0---0---2---2-----------------|
D|---2--2--2--2---0-------0------2---2---2---2---3---3---3---------------|
A|-3--3--3--3---2---2---2---2--------------------------------------------|
E|-----------------------------------------------------------------------|

Verse 1:
 You go on I'll be okay, I can dream the rest away it's just a little touch of fate, it 
will be okay
e|-----------------------------------------------------------------------|
B|---------------------------------1---1-----------1---1-----------------|
G|--------------------1-------1----0---0---0---0---2---2---2---2---------|
D|---2--2--2--2---0-------0------2---2---2---2---3---3---3---3-----------|
A|-3--3--3--3---2---2---2---2--------------------------------------------|
E|-----------------------------------------------------------------------|

 It sure takes its precious time, but it's got rights and so have I...
e|-----------------------------------------------------------------------|
B|---------------------------------1---1-----------1---1-----------------|
G|--------------------1-------1----0---0---0---0---2---2-----------------|
D|---2--2--2--2---0-------0------2---2---2---2---3---3---3---------------|
A|-3--3--3--3---2---2---2---2--------------------------------------------|
E|-----------------------------------------------------------------------|

Verse 2:
 I turn my head up to the sky, I focus one thought at a time, I do not let the little 
theifs under my tightly buttoned sleeves
e|-----------------------------------------------------------------------|
B|---------------------------------1---1-----------1---1-----------------|
G|--------------------1-------1----0---0---0---0---2---2---2---2---------|
D|---2--2--2--2---0-------0------2---2---2---2---3---3---3---3-----------|
A|-3--3--3--3---2---2---2---2--------------------------------------------|
E|-----------------------------------------------------------------------|

 You couldn't be alone, the time I feel like I'm walking blind, I have no where I'll 
have time
e|-----------------------------------------------------------------------|
B|---------------------------------1---1-----------1---1-----------------|
G|--------------------1-------1----0---0---0---0---2---2-----------------|
D|---2--2--2--2---0-------0------2---2---2---2---3---3---3---------------|
A|-3--3--3--3---2---2---2---2--------------------------------------------|
E|-----------------------------------------------------------------------|

                ...There are no legible signs...there are no legible signs
e|-----------------------------------------------------------------------|
B|---------------------1---1------------------------------1---1----------|
G|------------1---1------------2---2------------1---1-------------2---2--|
D|---2---2-----------2---2---3---3------2---2-----------2---2---3---3----|
A|-3---3----2---2---------------------3---3---2---2----------------------|
E|-----------------------------------------------------------------------|

  Da dum da da da da dum x6
e|-----------------------------------------------------------------------|
B|---------------------------------1---1-----------1---1-----------------|
G|--------------------1-------1----0---0---0---0---2---2---2---2---------|
D|---2--2--2--2---0-------0------2---2---2---2---3---3---3---3-----------|
A|-3--3--3--3---2---2---2---2--------------------------------------------|
E|-----------------------------------------------------------------------|

e|-----------------------------------------------------------------------|
B|---------------------------------1---1-----------1---1-----------------|
G|--------------------1-------1----0---0---0---0---2---2-----------------|
D|---2--2--2--2---0-------0------2---2---2---2---3---3---3---------------|
A|-3--3--3--3---2---2---2---2--------------------------------------------|
E|-----------------------------------------------------------------------|


continue guitar pattern throughout the rest of the song


I like the way that you talk,
I like the way that you walk
It's hard to recreate sush an individual gait

You wait your turn in the queue,
You say your sorries and thankyou's
I don't think your ever
A hundred percent in the room

...You're not in the room...You're not in the room

Da dum da da da da dum x6

Deepest of the dark nights
Here lies the highest of highs
Neopolitan Dreams stretching out to the sea

You wait you're turn in the queue
You say you're sorries and thankyou's
I don't think you're ever
A hundred percent in the room

...You're not in the room...You're not in the room

Da dum da da da da dum  x6   or however many times u wanna play it to end to song :p



Enjoy!
Please rate and comment
Thanx
Tap to rate this tab
 
# A B C D E F G H I J K L M N O P Q R S T U V W X Y Z