Song name
# A B C D E F G H I J K L M N O P Q R S T U V W X Y Z

Lisa Mitchell - Red Wine Lips tab

Lisa Mitchell - Red Wine Lips
[Album: Wonder]
Standard tuning


INTRO

         C                                 C
e|---------------------------------------------------------|
B|---------------------------------------------------------|
G|--------0---0---0---0---0---0---0---------0---0---0---0--|
D|--0h2---2---2---2---2---2---2---2---0h2---2---2---2---2--|
A|------3-3-3-3-3-3-3-3-3-3-3-3-3-3-3-----3-3-3-3-3-3-3-3--|
E|---------------------------------------------------------|


     C
e|---------------|
B|---------------|
G|----0---0------|
D|----2---2------|
A|--3-3-3-3-3----|
E|---------------|


VERSE

    C        Am     F    G    C
e|-----------------------------------|
B|----1---1---1---1-----------5---5--|
G|----0---0---2---2---2---4---5---5--|
D|----2---0---2---2---3---5---5---5--|
A|--3-3-2-2-0---0-----3---5-3---3----|
E|------------------1---3------------| x2

You see these red wine lips? I didn't dream up this
Out on suburban curbs, I'm always restless first


    Dm   C   G
e|-------------------|
B|----6---5---3---3--|
G|----7---5---4---4--|
D|----7---5---5---5--|
A|--5-5-3-3---5---5--|
E|----------3---3----| x3

But when the truth is told, we're all dreamers you know
I've always wanted more than I..


     F   G   C
e|-----------------------|
B|------------5---5---5--|
G|----2---4---5---5---5--|
D|----3---5---5---5---5--|
A|----3---5-3-3-3-3-3-3--|
E|--1---3----------------|

..could ever hold


BRIDGE

     F       C
E|-----------------------------------|
B|----1---1---5---5---5---5---5---5--|
G|----2---2---5---5---5---5---5---5--|
D|----3---3---5---5---5---5---5---5--|
A|----3---3-3-3-3-3-3-3-3-3-3-3-3-3--|
E|--1---1----------------------------| x2

And I know it's a fine line
But I know that I've got time


    C       Am               F   G   C
E|-------------------------------------------|
B|----5---5---1---1---1---1---1---3---5---5--|
G|----5---5---2---2---2---2---2---4---5---5--|
D|----5---5---2---2---2---2---3---5---5---5--|
A|--3-3-2-2-0-0-0-0-0-0-0-0---3---5-3-3-3-3--|
E|--------------------------1---3------------|

Oh how could a steeple made of ceiling wax
Ever need fall down?


CHORUS

     C       Am      F	G   C                 C
e|-----------------------------------     e|-------|
B|----1---1---1---1-----------5---5--     B|----5--|
G|----0---0---2---2---2---4---5---5--     G|----5--|
D|----2---0---2---2---3---5---5---5--     D|----5--|
A|--3-3-2-2-0---0-----3---5-3---3----     A|--3----|
E|------------------1---3------------ x4  E|-------| x5

*Whisling part..*



VERSE

     C      Am       F   G   C
e|-----------------------------------|
B|----1---1---1---1-----------5---5--|
G|----0---0---2---2---2---4---5---5--|
D|----2---0---2---2---3---5---5---5--|
A|--3-3-2-2-0---0-----3---5-3---3----|
E|------------------1---3------------| x2

Remember we had it all, every belle and ball
But just like Oliver oh, I wanted more


    Dm   C   G
e|-------------------|
B|----6---5---3---3--|
G|----7---5---4---4--|
D|----7---5---5---5--|
A|--5-5-3-3---5---5--|
E|----------3---3----| x3

And well I sure got that, Yeah I killed that cat
But I hope one fine day I'll stop..


     F   G   C
e|-----------------------|
B|------------5---5---5--|
G|----2---4---5---5---5--|
D|----3---5---5---5---5--|
A|----3---5-3-3-3-3-3-3--|
E|--1---3----------------|

..looking back


BRIDGE

     F       C
E|-----------------------------------|
B|----1---1---5---5---5---5---5---5--|
G|----2---2---5---5---5---5---5---5--|
D|----3---3---5---5---5---5---5---5--|
A|----3---3-3-3-3-3-3-3-3-3-3-3-3-3--|
E|--1---1----------------------------| x2

And I know that it's a fine line
Oh I know it's a high wire

    C
E|-----------|
B|----5---5--|
G|----5---5--|
D|----5---5--|
A|--3-3-2-2--|
E|-----------|
Oh how could a..


     F       Am
E|-----------------------------------------|
B|----1---1--------------------------------|
G|----2---2---5---5---5---5---5---5---5----|
D|----3---3---7---7---7---7---7---7---7----|
A|----3---3---7---7---7---7---7---7---7----|
E|--1---1---5---5---5---5---5---5---5---5-| x2

..steeple made of innocence
Oh golden arch and burning heart



    F        Am      F   G    C
E|-----------------------------------------|
B|----1---1-----------1---3---1---1--------|
G|----2---2---5---5---2---4---0---0--------|
D|----3---3---7---7---3---5---2---2--------|
A|----3---3---7---7---3---5-3-3-3-3--------|
E|--1---1---5---5---1---3-----------------|

Oh steeple made of ceiling wax
Ever need fall down



CHORUS

    C        Am      F   G   C                C
e|-----------------------------------     e|-------|
B|----1---1---1---1-----------5---5--     B|----5--|
G|----0---0---2---2---2---4---5---5--     G|----5--|
D|----2---0---2---2---3---5---5---5--     D|----5--|
A|--3-3-2-2-0---0-----3---5-3---3----     A|--3----|
E|------------------1---3------------ x4  E|-------| x5

*Whisling part..*



*etc.. (repeats first part)
Tap to rate this tab
# A B C D E F G H I J K L M N O P Q R S T U V W X Y Z