Song name
# A B C D E F G H I J K L M N O P Q R S T U V W X Y Z

Lisa Mitchell - Neopolitan Dreams tab

-------------------------------------------------------------------------------
 NEOPOLITAN DREAMS - Lisa Mitchell
-------------------------------------------------------------------------------
Tabbed by: Nessyrediney :) :)

Tuning:Standard

e|---------------------------------------------------------------------------|
B|---------------------------------------------------------------------------|
G|-----0-----0------0-----0-----------1------1-------1-----1-----------------|
D|-----2-----2---------2--------------2------2----------2--------------------|
A|--3-----3-----3-----------------2-------2------2---------------------------|
E|---------------------------------------------------------------------------|

e|---------------------------------------------------------------------------|
B|-----1----1------1------------------1-----1---1----------------------------|
G|-----2----2------2------------------2-----2---2----------------------------|
D|--2-----2----2-------0------------3-----3----------------------------------|
A|---------------------------------------------------------------------------|
E|---------------------------------------------------------------------------|

CHORUS

e|---------------------------------------------------------------------------|
B|---------------------------------1------1------1------1--------------------|
G|-----0-----0-------1-----1-------2------2------2------2--------------------|
D|-----2-----2-------2-----2-----3-----3------3------3-----------------------|
A|--3-----3-------2-----2----------------------------------------------------|
E|---------------------------------------------------------------------------|

e|---------------------------------------------------------------------------|
B|---------------------------------1------1----1-----------------------------|
G|-----0----0--------1-----1-------2------2----2-----------------------------|
D|-----2----2--------2-----2-----3-----3-------------------------------------|
A|--3-----3-------2-----2----------------------------------------------------|
E|---------------------------------------------------------------------------|

************************************

Tap to rate this tab
# A B C D E F G H I J K L M N O P Q R S T U V W X Y Z