Lisa - My Most Precious Treasure tab

Hey Guys :)
this is the updated version of My Most Precious Treasure
if there are any mistakes on the tab please email me at Taishi_Gan.Ning@yahoo.com
If you guys watched Ep. 10 of Angel Beats, the song was played in the saddest moment of 
anime. Bye Yui :(, well that's the only thing I'm gonna say anyway :P :D :D
Angel Beats Rock \m/

E--5h-7-5-7-----7--9--11---------------------------|
B-----------7-5------------------------------------|
G--------------------------------------------------|
D--------------------------------------------------|
A--------------------------------------------------|
E--------------------------------------------------|  (X2)

E--5h-7-5-7-----7--9--11---------------------------------------------|
B-----------7-5-------------12-12-12h-14-12-7-5-4-4-0----------------|
G--------------------------------------------------------------------|
D--------------------------------------------------------------------|
A--------------------------------------------------------------------|
E--------------------------------------------------------------------|


E--------------------------------------------------------|
B---------------------12h-14-12-7-5-4-4-0----------------|
G--------------------------------------------------------|
D--------------------------------------------------------|
A--------------------------------------------------------|
E--------------------------------------------------------|

End of Solo
Tap to rate this tab
 
# A B C D E F G H I J K L M N O P Q R S T U V W X Y Z