Song name
# A B C D E F G H I J K L M N O P Q R S T U V W X Y Z

Lisa - My Most Precious Treasure tab

This is a really great song sang by LiSA
And also my very first tab.
Hope you enjoy it =D
Any improvisation or mistake pls inform me at larx-sean@hotmail.com



1st
E-----------------------------|
B-----------------------------|
G-----------------------------|
D----7--6-7--------7--9--11---| x3
A------------7--5-------------|
E-----------------------------|

E-----------------------------|
B-----------------------------|
G-----------------------------|
D----7--9--7------------------|
A-------------5--4------------|
E-------------------7--7--5-5-|

2nd
E-----------------------------|
B-----------------------------|
G-----------------------------|
D----7--6-7--------7--9--11---|
A------------7--5-------------|
E-----------------------------|

E------------------------------|
B------------------------------|
G------------------------------|
D----7--6-7--------7--9--11--7-|
A------------7--5--------------|
E------------------------------|

E-----------------------------|
B-----------------------------|
G-----------------------------|
D----7--6-7--------7--9--11---|
A------------7--5-------------|
E-----------------------------|

E-----------------------------|
B-----------------------------|
G-----------------------------|
D----7--9--7------------------|
A-------------5--4------------|
E-------------------7--7--5-5-|

3rd
E-----------------------------|
B-----------------------------|
G-----------------------------|
D----8--7-8------8--10--12----| x3
A-----------8--6--------------|
E-----------------------------|

E-----------------------------|
B-----------------------------|
G-----------------------------|
D----8-10--8------------------|
A-------------6--5------------|
E-------------------8--8-6-6--|

4th
E------------------------------|
B------------------------------|
G------------------------------|
D----8--7-8--------8--10--12---|
A------------8--6--------------|
E------------------------------|

E------------------------------|
B------------------------------|
G------------------------------|
D----8--7-8-------8--10--12--8-|
A------------8--6--------------|
E------------------------------|

E------------------------------|
B------------------------------|
G------------------------------|
D----8--7-8--------8--10--12---|
A------------8--6--------------|
E------------------------------|

E------------------------------|
B------------------------------|
G------------------------------|
D----8-10--8-------------------|
A-------------6--5-------------|
E-------------------8--8--6-6--|

6th

E----7--6-7-------7--9--11-----|
B------------7--5--------------|
G------------------------------|
D------------------------------| x3
A------------------------------|
E------------------------------|

E----7-9--7--------------------|
B------------5--4--2--2-0-0----|
G------------------------------|
D------------------------------|
A------------------------------|
E------------------------------|

Last

E----7--6-7--------7--9--11----|
B------------7--5--------------|
G------------------------------|
D------------------------------|
A------------------------------|
E------------------------------|

E----7--6-7--------7--9--11-7--|
B------------7--5--------------|
G------------------------------|
D------------------------------|
A------------------------------|
E------------------------------|

E----7--6-7--------7--9--11----|
B------------7--5--------------|
G------------------------------|
D------------------------------|
A------------------------------|
E------------------------------|

E----7-9--7--------------------|
B------------5--4--2--2--0-0---|
G------------------------------|
D------------------------------|
A------------------------------|
E------------------------------|

E----9--7----------------------|
B----------5--4--2--2--0-0-----|
G------------------------------|
D------------------------------|
A------------------------------|
E------------------------------|

E----9--7----------------------|
B----------5--4---2--2-0-0-----|
G------------------------------|
D------------------------------|
A------------------------------|
E------------------------------|
Tap to rate this tab
 
# A B C D E F G H I J K L M N O P Q R S T U V W X Y Z