Song name
# A B C D E F G H I J K L M N O P Q R S T U V W X Y Z

Lissie - Bully tab

                           BULLY - Lissie
----------------------------------------------------------------------------

This is really really easy, and you probably could have worked it out with just 
the chords, but for those who cant, here it is!

Tuning: Standard



Chords Used:
C     x32010
E     022100
F     133211
G     355433
Dm    xx0231

Intro:
   C       E       F       G
e|---------------------------------|
B|-----1-------0-------1-------3---|
G|---0---0---1---1---2---2---4---4-|
D|---------------------------------|
A|-3-------------------------------|
E|---------0-------1-------3-------|


   C       E       F       G
e|---------------------------------|
B|-----1-------0-------1-------3---|
G|---0---0---1---1---2---2---4---4-|
D|---------------------------------| x8
A|-3-------------------------------|
E|---------0-------1-------3-------|
 
 Run ragged and wrecked 
 Catching a tiger, baiting a bully
 Was this my idea? Is it a mistake?
 Why did you take me here?

 Am I too far from home?
 Am I really all alone?

 Walk, child don't run
 Go off and have fun, we'll be waiting.
 Just look before you cross, take love with the loss.
 I know it's frustrating

 Mama's here and your papa too
 And we are so darn proud of you
 Mama's here and your papa too
 And we are so darn proud of you

   G       (G)     (G)
e|---------------------------------|
B|-----3-------3-------3-----------|
G|---4---4---4---4---4---4---------|
D|---------------------------------|
A|---------------------------------|
E|-3-------3-------3---------------|
Proud of you....

   C       E       F       G
e|---------------------------------|
B|-----1-------0-------1-------3---|
G|---0---0---1---1---2---2---4---4-|
D|---------------------------------| x4
A|-3-------------------------------|
E|---------0-------1-------3-------|
 Reach but don't push it away
 Say nice words and play with intention
 Practice restraint, find out what matters
 I know your heart's been broken
 But martyrs never open doors
 The world is yours, carry this torch, 
 And use your voice


   G       (G)     (G)
e|---------------------------------|
B|-----3-------3-------3-----------|
G|---4---4---4---4---4---4---------|
D|---------------------------------|
A|---------------------------------|
E|-3-------3-------3---------------|


(Strum from here on, or you could carry on the picking pattern above.)

Dm G x4
G

 C               E
 Run ragged and wrecked 
             F                G
 Catching a tiger, baiting a bully
 C             E               F
 Was this my idea? Is it a mistake?
              G
 Why did you take me here?

C E F G

 C                    E
 Mama's here and your papa too
     F              G
 And we are so darn proud of you
 C                    E
 Mama's here and your papa too
     F              G
 And we are so darn proud of you


 C                    E
 All of us who turned into you
 F                          G
 We're sure hoping that you pull on through
 C                    E
 All of us who turned into you
 F                          G
 We're sure hoping that you pull on through


 C                E
 Pull on through, Pull on through,
 F                G
 Pull on through, Pull on through,
 C                E
 Pull on through, Pull on through,
 F                G
 Pull on through

C E F G ....
Tap to rate this tab
 
# A B C D E F G H I J K L M N O P Q R S T U V W X Y Z