Song name
# A B C D E F G H I J K L M N O P Q R S T U V W X Y Z

Lissie - Further Away Romance Police tab

-------------------------------------------------------------------------------
Further Away (Romance Police) - Lissie
-------------------------------------------------------------------------------
Tabbed by:1.618
E-mail: freedomvegans@yahoo.co.uk

Tuning: Standard
E
B
G
D
A
E

intro
Bass part for guitar
e|---------------------------------------------------------------------------|
B|---------------------------------------------------------------------------|
G|----14-16----14-16----14-16----14-16----14-16----14-16----14-16----14-16---|
D|-14-------14-------14-------14-------14-------14-------14-------14---------|
A|---------------------------------------------------------------------------|
E|---------------------------------------------------------------------------|

e|---------------------------------------------------------------------------|
B|---------------------------------------------------------------------------|
G|-------14-16---14-16---14-16---14-16---14-16---14-16----14-16----14-16-----|
D|---------------------------------------------------------------------------|
A|----17-------17------17------17------15------15------15-------15-----------|
E|---------------------------------------------------------------------------|

 Verse x2

e|-7-7--7-7-7-7--7-7-7--7-7-7--7-7--7-7-7-7--7-7-7--7-7-7--7-7--7-7-7-7------|
B|-8-8--8-8-7-8--8-7-8--7-8-7--8-8--8-8-7-8--8-7-8--7-8-7--8-8--8-8-7-8------|
G|-9-9--9-9-7-9--9-7-9--7-9-7--9-9--9-9-7-9--9-7-9--7-9-7--7-7--7-7-7-7------|
D|-7-7--7-7-7-7--7-7-7--7-7-7--7-7--7-7-7-7--7-7-7--7-7-7--7-7--7-7-7-7------|
A|-7-7--7-7-7-7--7-7-7--7-7-7--7-7--7-7-7-7--7-7-7--7-7-7--7-7--7-7-7-7------|
E|---------------------------------------------------------------------------|

                            (let last chord ring)
e|-7-7-7--7-7-7--7-7--7-7---7------------------------------------------------|
B|-8-7-8--7-8-7--7-7--7-7---7------------------------------------------------|
G|-7-7-7--7-7-7--9-9--9-9---9------------------------------------------------|
D|-7-7-7--7-7-7--7-7--7-7---7------------------------------------------------|
A|-7-7-7--7-7-7--7-7--7-7---7------------------------------------------------|
E|---------------------------------------------------------------------------|


end of verse

Does anyone love anyone........

(with palm muting) x4
e|---------------------------------------------------------------------------|
B|-------8-8-8-7----8-8-8-7--5-----------------------------------------------|
G|-------------------------------5-7-----------------------------------------|
D|-----------------------------7---------------------------------------------|
A|---------------------------------------------------------------------------|
E|---------------------------------------------------------------------------|

Chorus x2
          C          D       Em
e|--------3----------5-------7-----------------------------------------------|
B|--------5----------7-------8-----------------------------------------------|
G|--------5----------7-------9-----------------------------------------------|
D|--------5----------7-------9-----------------------------------------------|
A|--------3----------5-------7-----------------------------------------------|
E|---------------------------------------------------------------------------|

verse 2 play same as first verse

end of verse

does anyone love anyone .......

play as upstrokes x8
e|-------5--5------------------------------------------------------------------|
B|-------5--5------------------------------------------------------------------|
G|-------7--7------------------------------------------------------------------|
D|-------7--7------------------------------------------------------------------|
A|-------5--5------------------------------------------------------------------|
E|-------5--5------------------------------------------------------------------|

chorus x4

bridge x8
e|------------------7--------------------------------------------------------|
B|-----------8-7-8----7-8----------------------------------------------------|
G|--------9------------------------------------------------------------------|
D|---------------------------------------------------------------------------|
A|---------------------------------------------------------------------------|
E|---------------------------------------------------------------------------|


solo

e|-0-0-3-0-0-0-0-0-0-0-3-0-0-0-0-0-0-0-3-5-0-0-0-5-0-0-0-0-0-0-0-5-0-0-0-0-0-|
B|---------------------------------------------------------------------------|
G|---------------------------------------------------------------------------|
D|---------------------------------------------------------------------------|
A|---------------------------------------------------------------------------|
E|---------------------------------------------------------------------------|

e|-0-0-8--10--10---0-0-0-0-0-0-0-0-0-0-0-0-0-0-0-0-0-0--15-17-15-0-0-0-------|
B|----------------17-17-17-17-17-17-17-17-17-17-17-17-17-17-17-17-17-17------|
G|---------------------------------------------------------------------------|
D|---------------------------------------------------------------------------|
A|---------------------------------------------------------------------------|
E|---------------------------------------------------------------------------|
        pb/br             pb/br                      pb/br        pb/br
e|----------------------------------------15---------------------------------|
B|----17(19)-17 15----17(19)-17-15-----15----17--17(19) 17 15----17(19)-17-15|
G|----------------14---------------19------------------------14--------------|
D|---------------------------------------------------------------------------|
A|---------------------------------------------------------------------------|
E|---------------------------------------------------------------------------|
                          pb/br                  pb/br
e|----------------------------------------------------------------------15-17|
B|---------------17\-----17(19)-17--15-------17(19)-17--15-------15--17------|
G|-19----14------16\-------------------14------------------19----------------|
D|-----------16--------------------------------------------------------------|
A|---------------------------------------------------------------------------|
E|---------------------------------------------------------------------------|
                b    b      b       b      b                   b
e|15 ----15--17(19) 17(19)-17(19)-17(19)-17(19) 17 15 17-19-19(21)19-17-19---|
B|---17----------------------------------------------------------------------|
G|---------------------------------------------------------------------------|
D|---------------------------------------------------------------------------|
A|---------------------------------------------------------------------------|
E|---------------------------------------------------------------------------|
      b     b             b      b
e|--22(24)-22(24)--------22(24)--22(24)--------------------------------------|
B|---------------------------------------------------------------------------|
G|---------------------------------------------------------------------------|
D|---------------------------------------------------------------------------|
A|---------------------------------------------------------------------------|
E|---------------------------------------------------------------------------|


Chorus x4

On 4th time through play this instead of the last Em
e|12--12--12--12--12--12--12--12--12--12--12--12--12--12--12--12-12----------|
B|---------------------------------------------------------------------------|
G|---------------------------------------------------------------------------|
D|---------------------------------------------------------------------------|
A|---------------------------------------------------------------------------|
E|---------------------------------------------------------------------------|

outro

    C     D     Em
e|--------2-----7------------------------------------------------------------|
B|--1-----3-----8------------------------------------------------------------|
G|--------2-----9------------------------------------------------------------|
D|--2-----------7------------------------------------------------------------|
A|--3-----------7------------------------------------------------------------|
E|---------------------------------------------------------------------------|

************************************

| /   slide up
| \   slide down
| h   hammer-on
| p   pull-off
| ~   vibrato
| +   harmonic
| x   Mute note
| b   Bend
| pb  Pre-bend
| br  Bend release
| pbr Pre-bend release
| brb Bend release bend



This is my first attempt at writing tab, i worked it
out from watching a live version on youtube

( http://www.youtube.com/watch?v=1mOqfLMiw1s)

the notes sound right but i might not have got
the timing right for the tab and the verse
might not be 100% accurate  all feedback welcome

hope you enjoy!!
Tap to rate this tab
# A B C D E F G H I J K L M N O P Q R S T U V W X Y Z