Song name
# A B C D E F G H I J K L M N O P Q R S T U V W X Y Z

Listener - Its Time For Drastic Measures Theyre Not Taking You Seriously tab

-------------------------------------------------------------------------------
  Listener - It's time for drastic measures, they're not taking you seriously
-------------------------------------------------------------------------------
Tabbed by: RoseofPain13
Email: dancarrmusic@live.co.uk


Tuning: Drop D


Intro Chords


   Em	     D       F#m      Bm   C#m/E
e|----------------------------------------|
B|----------------------------------------|
G|-0------------------2-------------------|
D|-2---------4--------4--------0----------|
A|-2---------5--------4--------2-----4----|
D|-----------------------------------2----|


Verse

  Emadd9		    D			     F#m		      Gsus2	   Asus2
e|----------------------|----------------------|----------------------|-----------------------|
B|----------------------|----------------------|----------------------|-----------------------|
G|----------------------|----------------------|----------------------|-----------------------|
D|-------5--4---2-------|-------7--5---4-------|------7----------7----|------7-----------9----|
A|----2------------5--2-|----5------------5--7-|----4----4-----4----4-|----5-----5-----7----7-|
D|-2--------------------|-0--------------------|-4---------4----------|-5-----------7---------|


Long Chords

   Bm       G6      D5      Bm          Em     F#m
e|--------------------------------------------------|
B|--------------------------------------------------|
G|--------------------------4----2------------------|
D|-0--------0-------7-------0----0------5-------7---|
A|-9--------7-------5-------2----0------2-------4---|
D|-9--------5-------0-------------------2-------4---|

Long Chords (2nd time)

   Bm       G6      D5      Bm          Em     D5      A
e|----------------------------------------------------------|
B|-----------------------------------------------------2----|
G|--------------------------4----2---------------------2----|
D|-0--------0-------7-------0----0------5-------7------2----|
A|-9--------7-------5-------2----0------2-------5------0----|
D|-9--------5-------0-------------------2-------0-----------|



Long Chords (3rd time)

   Bm       G      D5      Bm          Em     D5     Gsus2   A     D
e|--------------------------------------------------------------------|
B|-3---------------------------------------------------------2--------|
G|-4--------4---------------4----2---------------------------2--------|
D|-4--------5-------7-------0----0------5-------7-----7------2-----0--|
A|-2----------------5-------2----0------2-------5-----5------0-----0--|
D|----------5-------0-------------------2-------0-----5------------0--|
Tap to rate this tab
 
# A B C D E F G H I J K L M N O P Q R S T U V W X Y Z