Song name
# A B C D E F G H I J K L M N O P Q R S T U V W X Y Z

Listener - Wooden Heart tab

-------------------------------------------------------------------------------
                             Wooden Heart - Listener
-------------------------------------------------------------------------------
Tabbed by: Morso.

Tuning: Standard EADGBe

This is a wonderful song by Listener. There are two different parts, which are almost
the same all the time.
You can add notes if you will to make it sound different, but be aware, simple is beautiful.

Main Guitar:

Light tone and tremolo are used on the record.


e|------------------------------------------| Play this 8 times.
B|------------------------------------------|
G|------------------------------------------|
D|--------2--2-4-4/6-\--------6-6--7-7/9----|
A|------------------------0*----------------|
E|----0*------------------------------------|


( e|------------------------------------------------| ) The first part can also
( B|------------------------------------------------| ) be played like this,
( G|------------------------------------------------| ) but I prefer the other.
( D|------------------------------------------------| )
( A|--------7--7-9-9/11-------11-11--12-12/14-------| )
( E|----0*----------------5-------------------------| )

Move on to this, play it once.

e|------------------------------------------------|
B|------------------------------------------------|
G|------------------------------------------------|
D|------------9-----------------------------------|
A|--------9-----9-(9)--------7---9/11-11----------|
E|----7------------------5------------------------|

And back to the first part, with a small difference.

e|--------------------------------------------| Repeat the notes on the 6th and
B|--------------------------------------------| 9th frets.
G|--------------------------------------------|
D|--------2--2-4-4/6-6\--------6-6--7-7/9-9---|
A|------------------------0*------------------|
E|----0*--------------------------------------|

And here we are again, variating the second part.

e|------------------------------------------------|
B|------------------------------------------------|
G|------------------------------------------------|
D|------------9------------------------9----------|
A|--------9-----9-9--------7-9--9/11--------------|
E|----7------------------5------------------------|

Then just repeat two last part, first one comes 6 times and the second only once as usual.

GUITAR 2:
The slide parts are tabbed here only for the high e-sting.


e|--2/4-/5\4/7---2/4-/5\4/7--7/9\7--/12/14/16/19/21--21\19-------------------|
e|--14/16-\14-\12-\7---/9\7--/16--\14-\12-\7---/9\7--------------------------|
e|--/16--/17\16/19(/21)-----/16--/17\16\14-----------------------------------|
e|--/16-\14-\12-\7--/9\7---/16-\14-\12-\7--/9\7-4/5\4--2/4/5\4/7-/9\7--------|
e|--/12/14/16/19/21-\19------------------------------------------------------|

After this there is only some repeating left, the last note is 12th fret on high e.

************************************
|(7)  additional note
| *   let ring
| /   slide up
| \   slide down
| h   hammer-on
| p   pull-off
| ~   vibrato
| +   harmonic

************************************
Tap to rate this tab
# A B C D E F G H I J K L M N O P Q R S T U V W X Y Z