Song name
# A B C D E F G H I J K L M N O P Q R S T U V W X Y Z

Lit - Bitter tab

Artist - Lit
Song Title - Bitter
Album - Tripping The Light Fantastic
Tabbed by Lights 0utt

OK this is a really easy song to play, and one of Lit's best songs. The tab is pretty 
all power chord. You may want to listen to the song to get it on rythem. Im 99.99% correct 
this tab, any errors let me know


MAIN RIFF:
e|--------------------------------------------------------------------|
B|--------------------------------------------------------------------|
G|------6-6--5-5-----------8-8--6-6-----------------------------------|
d|-3-3--6-6--5-5--3---3-3--8-8--6-6--3--------------------------------|
A|-3-3--4-4--3-3--3---3-3--6-6--4-4--3--------------------------------|
D|-3-3------------3---3-3------------3--------------------------------|

VERSE:
e|--------------------------------------------------------------------|
B|--------------------------------------------------------------------|
G|--------------------------------------------------------------------|
d|-3--333---2-2-2-2-2-2-2--3-3-3-1-1/3-3-3-1-1-x-x-x--3-2-2-2-2-2-2-2-|
A|-3--333------------------3-3-3-1-1/3-3-3-1-1-x-x-x--3---------------|
D|-3--333------------------3-3-3-1-1/3-3-3-1-1-x-x-x--3---------------|

BRIDGE 1: ("Hurry up, wait up...")
e|--------------------------------------------------------------------|
B|--------------------------------------------------------------------|
G|----6-6-------------------------------------------------------------|
d|--3-6-6-3-3-3-3-----------------------------------------------------|
A|--3-4-4-3-3-3-3-----------------------------------------------------|
D|--3-----3-3-3-3-----------------------------------------------------|

BRIDE 2: (palm muted, then normal, lsiten to song reference)
e|-------------------------------|------------------------------------|
B|-------------------------------|------------------------------------|
G|---------------6---------------|----------------6-6-6-6-6-6-6-6-----|
d|-3-------------6---------------|-3-3-3-3-3-3-3--6-6-6-6-6-6-6-6-----|
A|-3-------------4-4-4-4-4-4-4-4-|-3-3-3-3-3-3-3--4-4-4-4-4-4-4-4-----|
D|-3-3-3-3-3-3-3-----------------|-3-3-3-3-3-3-3----------------------|

CHROUS:
e|--------------------------------------------------------------------|
B|--------------------------------------------------------------------|
G|--------------------------------------------------------------------|
d|-3-3-3/11-11---6-6-6--4-4-------------------------------------------|
A|-3-3-3/11-11---6-6-6--4-4-------------------------------------------|
D|-3-3-3/11-11---6-6-6--4-4-------------------------------------------|

Thats it, the solo is alot of distortion and random picking so just mess around with 
the lyrics are below. Enjoy!
Tap to rate this tab
# A B C D E F G H I J K L M N O P Q R S T U V W X Y Z