Song name
# A B C D E F G H I J K L M N O P Q R S T U V W X Y Z

Lit - Dozer tab

Tuning: Drop D

Intro
|-----------------------------------------------------------------|
|-----------------------------------------------------------------|
|-5-5-5-5-5-5-5-5-------------------------------------------------|
|-5-5-5-5-5-5-5-5-5-5-5-5-5-5-5-5-2-2-2-2-2-2-2-2-2-2-2-2-2-2-2-2-|
|-3-3-3-3-3-3-3-3-5-5-5-5-5-5-5-5-2-2-2-2-2-2-2-2-2-2-2-2-2-2-2-2-|
|-----------------3-3-3-3-3-3-3-3-0-0-0-0-0-0-0-0-0-0-0-0-0-0-0-0-|

|-----------------------------------------------------------------|
|-----------------------------------------------------------------|
|-5-5-5-5-5-5-5-5-12hb-12hb-12hb-12hb-----------------------------|
|-5-5-5-5-5-5-5-5---------------------2~~~~~~~~~~~~~~~~~~~~~~~~~~-|
|-3-3-3-3-3-3-3-3---------------------2~~~~~~~~~~~~~~~~~~~~~~~~~~-|
|-------------------------------------0~~~~~~~~~~~~~~~~~~~~~~~~~~-|

Verse
|-----3-------0---------------0----|
|----3-3-----0-0-------------0-0---|
|---0---0---1---1---3---5---1---1--|
|--2-----2-2-----2-3-3-5-5-2-----2-|
|-3-------2-------1---3---2--------|
|----------------------------------|

Chorus
|-----------------------------------------------------------------|
|-----------------------------------------------------------------|
|-------------------------------------------------5-5-5-5-5-5-5-5-|
|-2-2-2-2-5-5-5-5-7-7-7-7-7-7-7-7-2-2-2-2-5-5-5-5-5-5-5-5-5-5-5-5-|
|-2-2-2-2-5-5-5-5-7-7-7-7-7-7-7-7-2-2-2-2-5-5-5-5-3-3-3-3-3-3-3-3-|
|-0-0-0-0-3-3-3-3-5-5-5-5-5-5-5-5-0-0-0-0-3-3-3-3-----------------|

I'll add the solo/bridge once i figure them out
Tap to rate this tab
# A B C D E F G H I J K L M N O P Q R S T U V W X Y Z