Song name
# A B C D E F G H I J K L M N O P Q R S T U V W X Y Z

Lit - No Big Thing tab

Title: No Big Thing
Artist: Lit
Album: A Place for the Sun
Year: 1999

Tuning: Drop D
Key:
. palm mute
~ vibrato
/ slide

INTRO
e|------------------------------------------------|
B|------------------------------------------------|
G|-4-44-444---------------------------------------|
D|-4-44-444--4-44-444--2-22-222-2-22-222----------| X 2
A|-2-22-222--4-44-444--2-22-222-2-22-222----------|
D|-----------4-44-444--2-22-222-2-22-222----------|
(On the second time, strum more 2's on D in same timing)

2nd Guitar on top after above played twice
e|------------------------------------------------|
B|------------------------------------------------|
G|------------------------------------------------|
D|------------------------------------------------|
A|-/9999-999-9999-999-9999-9999-99998888----------|
D|------------------------------------------------|

e|------------------------------------------------------|
B|------------------------------------------------------|
G|-4-4-44-----------------------------------------------|
D|-4-4-44--4-4-44--2-22-222-2-22-222--2-22-222-2-22-222-|
A|-2-2-22--4-4-44--2-22-222-2-22-222--2-22-222-2-22-222-|
D|---------4-4-44--2-22-222-2-22-222--2-22-222-2-22-222-|

VERSE
e|------------------------------------------------|
B|------------------------------------------------|
G|------------------------------------------------|
D|-11-4-444-77-6-666------------------------------| X 4
A|-11-4-444-77-6-666------------------------------|
D|-11-4-444-77-6-666------------------------------|

e|------------------------------------------------|
B|------------------------------------------------|
G|------------------------------------------------|
D|-44444444-44------------------------------------|
A|-44444444-44------------------------------------|
D|-44444444-44------------------------------------|
   ........

e|------------------------------------------------|
B|------------------------------------------------|
G|------------------------------------------------|
D|-11-4-444-77-6-666------------------------------| X 2
A|-11-4-444-77-6-666------------------------------|
D|-11-4-444-77-6-666------------------------------|

e|------------------------------------------------|
B|------------------------------------------------|
G|------------------------------------------------|
D|-44444444-44------------------------------------|
A|-44444444-44------------------------------------|
D|-44444444-44------------------------------------|
   ........

e|------------------------------------------------|
B|------------------------------------------------|
G|------------------------------------------------|
D|-11-4-444-77-6-666------------------------------| X 2
A|-11-4-444-77-6-666------------------------------|
D|-11-4-444-77-6-666------------------------------|

CHORUS
e|------------------------------------------------|
B|------------------------------------------------|
G|-4---4------------------------------------------|
D|-4---4---4---4---2-22-222-222222----------------| X 3
A|-2---2---4---4---2-22-222-222222----------------|
D|---------4---4---2-22-222-222222----------------|

e|------------------------------------------------|
B|------------------------------------------------|
G|-4---4------------------------------------------|
D|-4---4---4---4---2-22-222-222222----------------|
A|-2---2---4---4---2-22-222-222222----------------|
D|---------4---4---2-22-222-222222----------------|

VERSE 2
e|------------------------------------------------|
B|------------------------------------------------|
G|------------------------------------------------|
D|-11-4-444-77-6-666------------------------------| X 2
A|-11-4-444-77-6-666------------------------------|
D|-11-4-444-77-6-666------------------------------|

e|------------------------------------------------|
B|------------------------------------------------|
G|------------------------------------------------|
D|-44444444-44------------------------------------|
A|-44444444-44------------------------------------|
D|-44444444-44------------------------------------|
   ........

e|------------------------------------------------|
B|------------------------------------------------|
G|------------------------------------------------|
D|-11-4-444-77-6-666------------------------------| X 2
A|-11-4-444-77-6-666------------------------------|
D|-11-4-444-77-6-666------------------------------|

e|------------------------------------------------|
B|------------------------------------------------|
G|------------------------------------------------|
D|-44444444-44------------------------------------|
A|-44444444-44------------------------------------|
D|-44444444-44------------------------------------|
   ........

e|------------------------------------------------|
B|------------------------------------------------|
G|------------------------------------------------|
D|-11-4-444-77-6-666------------------------------| X 2
A|-11-4-444-77-6-666------------------------------|
D|-11-4-444-77-6-666------------------------------|

CHORUS

SOLO
e|-----------------------------------------------------|
B|-----------------------------------------------------|
G|-----------------------------------------------------|
D|---17-----17----------------17-----17---17/19-19-17~-|
A|-15--15-14--14-12-10/12~--15--15-14--14--------------|
D|-----------------------------------------------------|

(next part may be incorrect, having trouble figuring out
speedy ending of solo...)
e|------------------------------------------------|
B|------------------------------------------------|
G|------------------------------------------------|
D|-17-15-1414-121212------------------------------|
A|------------------------------------------------|
D|------------------------------------------------|

CHORUS

OUTRO
e|------------------------------------------------|
B|------------------------------------------------|
G|------------------------------------------------|
D|-4-------9--------------------------------------|
A|-4-------9--------------------------------------|
D|-4-------9--------------------------------------|
Tap to rate this tab
# A B C D E F G H I J K L M N O P Q R S T U V W X Y Z