Lit - Needle And Thread tab

-------------------------------------------------------------------------------
			     Needle & Thread - Lit
-------------------------------------------------------------------------------
Tabbed by: austino333
Email: austinlaverdure@hotmail.com

Sorry I dont have the solo...

Tuning: Standar

e|------------------------------x-x-x----------------------------------------|
B|------------------------------x-x-x----------------------------------------|
G|------------------------------x-x-x----------------------------------------|
D|------------------------------x-x-x----------------------------------------|
A|------------------------------x-x-x----------------------------------------|
E|--2--2----0--2--2----0--2--2--x-x-x----------------------------------------|

       This Is The Main Rift
e|---------------------------------------------------------------------------|
B|---------------------------------------------------------------------------|
G|---------------------------------------------------------------------------|
D|--4--4-------4--4-------4--4-------4/6b------------------------------------|
A|--4--4-------4--4-------4--4-------4/xb------------------------------------|
E|--2--2----0--2--2----0--2--2----0--2/6b------------------------------------|

e|---------------------------------------------------------------------------|
B|---------------------------------------------------------------------------|
G|---------------------------------------------------------------------------|
D|--4------------------------------------------------------------------------|
A|--4------------------------------------------------------------------------|
E|--2------------------------------------------------------------------------| Let It Ring

e|---------------------------------------------------------------------------|
B|---------------------------------------------------------------------------|
G|---------------------------------------------------------------------------|
D|--7--8----------------------4--4-------4--4-------4--4-------4/6-----------|
A|--7--8----------------------4--4-------4--4-------4--4-------4/x-----------|
E|--5--6----------------------2--2----0--2--2----0--2--2----0--2/6-----------| 
Woh - Oh! Youll Never Know

e|---------------------------------------------------------------------------|
B|---------------------------------------------------------------------------|
G|---------------------------------------------------------------------------|
D|--4-4-4-4-4-4-4-4-7-7-7-7-7-7-7-7-4-4-4-4-4-4-4-4-7-7-7-7-7-7-7-7-7-7-7-7--|
A|--4-4-4-4-4-4-4-4-7-7-7-7-7-7-7-7-4-4-4-4-4-4-4-4-7-7-7-7-7-7-7-7-7-7-7-7--|
E|--2-2-2-2-2-2-2-2-5-5-5-5-5-5-5-5-2-2-2-2-2-2-2-2-5-5-5-5-5-5-5-5-5-5-5-5--|

e|---------------------------------------------------------------------------|
B|---------------------------------------------------------------------------|
G|------------------------------------------7--7-7-7-7-7-7-------------------|
D|-7-7-7-7--4--4-4-4-4-4-4--4--4-4-4-4-4-4--7--7-7-7-7-7-7--6--6-6-6-6-6-6---|
A|-7-7-7-7--4--4-4-4-4-4-4--4--4-4-4-4-4-4--6--6-6-6-6-6-6--6--6-6-6-6-6-6---|
E|-5-5-5-5--2--2-2-2-2-2-2--2--2-2-2-2-2-2--6--6-6-6-6-6-6--4--4-4-4-4-4-4---|


I love Lit


You pretty much know when to repeat and stuff if you listen to this song alot!


Well, its my 1st tab, if you have any problems with it tell me! Thanks


************************************

| /   slide up
| \   slide down
| h   hammer-on
| p   pull-off
| ~   vibrato
| +   harmonic
| x   Mute note
| b   Bend
| pb  Pre-bend
| br  Bend release
| pbr Pre-bend release
| brb Bend release bend

************************************
Tap to rate this tab
 
# A B C D E F G H I J K L M N O P Q R S T U V W X Y Z