Song name
# A B C D E F G H I J K L M N O P Q R S T U V W X Y Z

Lit - Happy In The Meantime tab

Help us improve GuitareTab! Take a short survey!
"Happy in the Meantime" 
by Lit (on the ablum "Atomic")

I couldn't find any tabs for this song so I made an attempt to do my first tab.
It sounds pretty accurate I think when played along with the song. Some parts sound 
better if you palm mute. The whole song is tabbed out from start to finish so it's
easy to follow.

Lit rocks (check out Atomic, their latest CD), this is a great acoustic song. 
Heard it first at the 97x "Next Big Thing 2001" concert in Clearwater, FL.

Tabbed by Gerard Daubar (gdaubar@hotmail.com)

Tuning: Eb Ab Db Gb Bb Eb


Intro
e----------------------------------------------------------------------
b--------5-----------------5-------------------------------------------
g------6----77--999------6----777--99----------------------------------
d--7-7------77--999--7-7------777--99----------------------------------
a--7--------55--777--7--------555--77----------------------------------
E--5-----------------5-------------------------------------------------

                                  "Have another drink..."
e------------------------------------------------------------------------------
b--------5-----------------5---------------------------------------------------
g------6----77--999------6----77--99--------------------------77777777--9------
d--7-7------77--999--7-7------77--99--7777--6666--4444--2222--77777777--9------
a--7--------55--777--7--------55--77--7777--6666--4444--2222--55555555--7------
E--5-----------------5----------------5555--4444--2222--0000-------------------

   "I've got to make up for losing time..."
e------------------------------------------------------------------
b------------------------------------------------------------------
g------------7777--9999------------7777--9999-----------77777------
d--77777777--7777--9999--77777777--7777--9999----77777--77777------
a--77777777--5555--7777--77777777--5555--7777----77777--55555------
E--55555555--------------55555555----------------55555-------------

"Things seem better off now..."
e------------------------------------------------------
b------------------------------------------------------
g------------------------------------------------------
d--7777--6666--4444--2222----7777--6666--4444--2222----
a--7777--6666--4444--2222----7777--6666--4444--2222----
E--5555--4444--2222--0000----5555--4444--2222--0000----


                                  "Let's have another drink..."
e--------------------------------------------------------------
b--------5-----------------5-----------------------------------
g------6----77--999------6----77--99---------------------------
d--7-7------77--999--7-7------77--99--7777--6666--4444--2222---
a--7--------55--777--7--------55--77--7777--6666--4444--2222---
E--5-----------------5----------------5555--4444--2222--0000---

e---------------------
b---------------------
g--77777777--9--------
d--77777777--9--------
a--55555555--7--------
E---------------------

   "I guess the rain is gonna follow me..."      "And I can't wait.."
e------------------------------------------------------------------
b------------------------------------------------------------------
g------------7777--9999------------7777--9999-----------77777------
d--77777777--7777--9999--77777777--7777--9999----77777--77777------
a--77777777--5555--7777--77777777--5555--7777----77777--55555------
E--55555555--------------55555555----------------55555-------------

"..things are better off now..."
e------------------------------------------------------
+b------------------------------------------------------
g------------------------------------------------------
d--7777--6666--4444--2222----7777--6666--4444--2222----
a--7777--6666--4444--2222----7777--6666--4444--2222----
E--5555--4444--2222--0000----5555--4444--2222--0000----

                                  "Let's have another drink..."
e---------------------------------------------------------------
b--------5-----------------5------------------------------------
g------6----77--999------6----77--99----------------------------
d--7-7------77--999--7-7------77--99--7777--6666--4444--2222----
a--7--------55--777--7--------55--77--7777--6666--4444--2222----
E--5-----------------5----------------5555--4444--2222--0000----

e--------------------------------
b--------------------------------
g--777777--9--------777777--9----
d--777777--9--------777777--9----
a--555555--7--------555555--7----
E--------------------------------

"We'll save a little rain..."
e--------------------------------------------------------------------------
b--------------------------------------------------------------------------
g------------------------------------------777777--999999--777777--99999---
d--77777777--66666666--44444444--22222222--777777--999999--777777--99999---
a--77777777--66666666--44444444--22222222--555555--777777--555555--77777---
E--55555555--44444444--22222222--00000000----------------------------------
PM?......................................

e---------------------------------------------------------------------------
b--------5-----------------5-----------------5-----------------5------------
g------6----77--999------6----77--999------6----77--999------6----77--99----
d--7-7------77--999--7-7------77--999--7-7------77--999--7-7------77--99----
a--7--------55--777--7--------55--777--7--------55--777--7--------55--77----
E--5-----------------5-----------------5-----------------5------------------

"Let's have another drink..."
e--------------------------------------------
b--------------------------------------------
g--------------------------777777--999999----
d--7777--6666--4444--2222--777777--999999----
a--7777--6666--4444--2222--555555--777777----
E--5555--4444--2222--0000--------------------

                                  "Have another drink..."
e---------------------------------------------------------------
b--------5-----------------5------------------------------------
g------6----77--999------6----77--99----------------------------
d--7-7------77--999--7-7------77--99--7777--6666--4444--2222----
a--7--------55--777--7--------55--77--7777--6666--4444--2222----
E--5-----------------5----------------5555--4444--2222--0000----

   "Happy in the meantime..."
e---------------------------------------------------------------
b---------------------------------------------------------------
g--777777--999999--------777777--999999--------777777--999999---
d--777777--999999--------777777--999999--------777777--999999---
a--555555--777777--------555555--777777--------555555--777777---
E---------------------------------------------------------------
Related for Happy In The Meantime tab