Song name
# A B C D E F G H I J K L M N O P Q R S T U V W X Y Z

Lit - The Wall tab

First tab I have made, I haven't figured out the solo yet, but I will...Also, I am
playing this on acoustic and have tabbed it out according to their acoustic performance. The
album version isn't much different...it starts with intro, skip first verse, come back 
in at pre-chorus-"I go back, ohhhh, I go back..." As far as I've noticed, that's the only
difference, the first verse is skipped. The strumming is simple, it's pretty much up and down.
Enjoy.


Intro
Eb|---------------------------------------------------------x2 ---------------|
Bb|----------------------------------------------------------- ---------------|
Gb|-12/14~~~~----17-16-17-16-17-16-17-12/14~~~--14-12~-------- ---------------|
Db|---------------------------------------------------14-12~- then 10-9-7~----|
Ab|----------------------------------------------------------- ---------------|
Eb|----------------------------------------------------------- ---------------|

   verse                  Pre-Chorus
Eb|---------------------------------------------------------------------------|
Bb|--------------------x2--------x2-------------------------------------------|
Gb|-2-----------2-------------------------------------------------------------|
Db|-2-----3-----2----5------3--5----------------------------------------------|
Ab|-0-----3-----0----5------3--5----------------------------------------------|
Eb|-------1----------3------1--3----------------------------------------------|


   Chrous
Eb|---------------------------------x2------------------------------------------|
Bb|-----------------------------------------------------------------------------|
Gb|-5------------5--------------------------------------------------------------|
Db|-5--5--7--3---5--5---7--9--10---3------5-------------------------------------|
Ab|-3--5--7--3---3--5---x--x--x----3------5-------------------------------------|
Eb|----3--5--1------3---5--7--8----1------3-------------------------------------|

INTRO second time through

verse


chorus


solo
Tap to rate this tab
 
# A B C D E F G H I J K L M N O P Q R S T U V W X Y Z