Song name
# A B C D E F G H I J K L M N O P Q R S T U V W X Y Z

Lit - Completely Miserable tab

e------------------------------------------------
B------------------------------------------------
G-7---7---2---2-------------7--------------------
D-7---7---2---2---2---2-------7------------------
A-5---5---0---0---2---2---5----------------------
E-----------------0---0--------------------------

e------------------------------------------------
B------------------------------------------------
G-7---7---2---2-------------7--------------------
D-7---7---2---2---2---2-------7------------------
A-5---5---0---0---2---2---5----------------------
E-----------------0---0--------------------------

e------------------------------------------------
B------------------------------------------------
G-7---7---2---2-------------7--------------------
D-7---7---2---2---2---2-------7------------------
A-5---5---0---0---2---2---5----------------------
E-----------------0---0--------------------------
Tap to rate this tab
# A B C D E F G H I J K L M N O P Q R S T U V W X Y Z