Song name
# A B C D E F G H I J K L M N O P Q R S T U V W X Y Z

Lit - The Best Is Yet To Come Undone tab

#----------------------------------PLEASE NOTE---------------------------------#
#This file is the author's own work and represents their interpretation of the #
#song. You may only use this file for private study, scholarship, or research. #
#------------------------------------------------------------------------------##

"the best is yet to come undone"_________________________________________________________________ __________intro:_______________________________________________________
--------------------------------------------------------------------------------------------|
--------------------------------------------------------------------------------------------|
--X-X-3--X-X-X-3--X-X-3--X-X-X-3--7-7-7-7-7-7-7-7-7-7-7-7-7-7-------------------------------|
--X-X-3--X-X-X-3--X-X-3--X-X-X-3--7-7-7-7-7-7-7-7-7-7-7-7-7-7-------------------------------|
--X-X-1--X-X-X-1--X-X-1--X-X-X-1--5-5-5-5-5-5-5-5-5-5-5-5-5-5-------------------------------|
--------------------------------------------------------------------------------------------|

_______________________________________________________________________________________ __________chorus+interlude:_______________________________________________________

----------------------------------------------------------------------------------------|
----------------------------------------------------------------------------------------|
----------------------------------------------------------------------------------------|
--4-4-4-4-4-4-4-4--7-7-7-7-7-7-7-7------------------------------------------------------|
--4-4-4-4-4-4-4-4--7-7-7-7-7-7-7-7------------------------------------------------------|
--2-2-2-2-2-2-2-2--5-5-5-5-5-5-5-5------------------------------------------------------|
Tap to rate this tab
# A B C D E F G H I J K L M N O P Q R S T U V W X Y Z