Song name
# A B C D E F G H I J K L M N O P Q R S T U V W X Y Z

Lit - Too Fast For A U-turn tab

Song: Too Fast for a U-turn
Artist: Lit
Album: Lit

I'm pretty sure this is correct. I'm still working on the solo


Standard tuning (EADGBe)
   p   =  pull off
   h   =  hammer on
   .   =  palm mute
   ~   =  let ring
   /   =  slide
   b   =  bend

Intro (2x)                                       2nd time add this
e ----------------         ---------------------|-----|
B ----------------         ---------------------|-----|
G ---7--7--7-5-7-- 3x then --12--10-------------|12b--|
D ----------------         ---------12p10--10h12|-----|
A --5-h5-h5-------         --------------12-----|-----|
E ----------------         ---------------------|-----|

Verse (2x)
e ----------------         ----------------------|
B ----------------         ----------------------|
G ---7--7--7-5-7-- 3x then --12--10--------------|
D ----------------         ---------12p10--10h12-|
A --5-h5-h5-------         --------------12------|
E ----------------         ----------------------|

Pre Chorus
e ------------|
B ------------|
G ------------|
D --5~--573~--|
A --5~--573~--|
E --3~--351~--|

Chorus
e ------------------------------------------------------------|
B ------------------------------------------------------------|
G -7777-777-----------7777-777----------7777-777--------------|
D -7777-777-8888-888--7777-777-8888-888-7777-777-8888-888/7~--|
A -5555-555-8888-888--5555-555-8888-888-5555-555-8888-888/7~--|
E ----------6666-666-----------6666-666----------6666-666/5~--|

end first chorus with
e -----------------------|
B -----------------------|
G -----------------------|
D -----------------------|
A -----------------------|
E --9/10-9/10-9/10-9/10--|

Pre Verse (2x)                                   2nd time add this
e ----------------         ---------------------|-----|
B ----------------         ---------------------|-----|
G ---7--7--7-5-7-- 3x then --12--10-------------|12b--|
D ----------------         ---------12p10--10h12|-----|
A --5-h5-h5-------         --------------12-----|-----|
E ----------------         ---------------------|-----|

Verse (2x)
e ----------------         ----------------------|
B ----------------         ----------------------|
G ---7--7--7-5-7-- 3x then --12--10--------------|
D ----------------         ---------12p10--10h12-|
A --5-h5-h5-------         --------------12------|
E ----------------         ----------------------|

Pre Chorus
e ------------|
B ------------|
G ------------|
D --5~--573~--|
A --5~--573~--|
E --3~--351~--|

Chorus
e ------------------------------------------------------------|
B ------------------------------------------------------------|
G -7777-777-----------7777-777----------7777-777--------------|
D -7777-777-8888-888--7777-777-8888-888-7777-777-8888-888/7~--|
A -5555-555-8888-888--5555-555-8888-888-5555-555-8888-888/7~--|
E ----------6666-666-----------6666-666----------6666-666/5~--|

[insert solo here]

Bridge (2x)
e -------------------------------------------------|
B -------------------------------------------------|
G --777777777777777777777777--12--10---------------|
D --777777777777777777777777---------12p10--10h12--|
A --555555555555555555555555--------------12-------|
E -------------------------------------------------|
    ........................

Pre Chorus
e ------------|
B ------------|
G ------------|
D --5~--573~--|
A --5~--573~--|
E --3~--351~--|

Chorus (2x)
e ------------------------------------------------------------|
B ------------------------------------------------------------|
G -7777-777-----------7777-777----------7777-777--------------|
D -7777-777-8888-888--7777-777-8888-888-7777-777-8888-888/7~--|
A -5555-555-8888-888--5555-555-8888-888-5555-555-8888-888/7~--|
E ----------6666-666-----------6666-666----------6666-666/5~--|

Outro                                            End with
e ----------------         ---------------------|-----|
B ----------------         ---------------------|-----|
G ---7--7--7-5-7-- 3x then --12--10-------------|12b--|
D ----------------         ---------12p10--10h12|-----|
A --5-h5-h5-------         --------------12-----|-----|
E ----------------         ---------------------|-----|

Another great song by Lit. If anyone knows the solo please
let me know: unsung_zero@hotmail.com
Tap to rate this tab
# A B C D E F G H I J K L M N O P Q R S T U V W X Y Z