Song name
# A B C D E F G H I J K L M N O P Q R S T U V W X Y Z

Lit - Please Tell Me Why tab

Hey everyone hopefuly this will help you to play this song 
i love it i think its a great song 


Please tell me why

intro 

||-----------------------------------------||
||-----------------------------------------||
||-----------------------------------------||
||---8/9-9-9-9-9-9-9-9---8-9-9-9-9-9--9-7--|| x4
||---6/7-7-7-7-7-7-7-7---6/7-7-7-7-7--9-7--||
||------------------------------------7-5--||

verse

||---------------------------------------------||
||---------------------------------------------||
||---------------------------4/2---------------||
||--2-2-2--2-2-2--2-2-2--2-2-4/2---------------|| x3  
||--2-2-2--2-2-2--2-2-2--2-2-2/0---------------||
||--0-0-0--0-0-0--0-0-0--0-0-------------------||
    


||------------------------------------------||
||------------------------------------------||
||------------------------4----2------------||
||--2-2-2---2-2---2-2---2-4----2------------|| x1   
||--2-2-2---2-2---2-2---2-2----0------------||
||--0-0-0---0-0---0-0---0-------------------||
                         (let ^ ring)

chorus

||-----------------------------------------------------------------------||
||-----------------------------------------------------------------------||
||-----------------------------------------------------------------------||
||---2-2-2-2-2-2-2-2/4-4-4-4-4-4-4-4/7-7-7-7-7-7-7-7/9-9-9-9-9-9-9-9-9---|| x2 
||---2-2-2-2-2-2-2-2/4-4-4-4-4-4-4-4/7-7-7-7-7-7-7-7/9-9-9-9-9-9-9-9-9---||
||---0-0-0-0-0-0-0-0/2-2-2-2-2-2-2-2/5-5-5-5-5-5-5-5/7-7-7-7-7-7-7-7-7---||



||-----------------------------------------||
||-----------------------------------------||
||-----------------------------------------||
||---8/9-9-9-9-9-9-9-9---8-9-9-9-9-9--9-7--|| x2
||---6/7-7-7-7-7-7-7-7---6/7-7-7-7-7--9-7--||
||------------------------------------7-5--||

verse


chorus 


solo:
||------------------------------------------||
||------------------------------------------||
||------------------------------------11-11-||
||---8/9-9-9-9-9-9-9-9---8/9-9-9-9-9--11 11-||     x2
||---6/7-7-7-7-7-7-7-7---6/7-7-7-7-7--9--9--||
||------------------------------------------||


||--------------------------------------------------------------||
||---9/1010101010101010--9/1010101010-12-12--12/1414141412121212||
||---8/9-9-9-9-9-9-9-9---8/9-9-9-9-9--11-11--11-----------------||
||---6/7-7-7-7-7-7-7-7---6/7-7-7-7-7--9--9---9------------------||     
||--------------------------------------------------------------||
||--------------------------------------------------------------||


||-----------------------------------------||
||--10101010-9-5---------------------------||
||-----------------------------------------||
||------- (let ^ ring----------------------||       
||-----------------------------------------||


ending
||-----------------------------------------------------------------------||
||-----------------------------------------------------------------------||
||-----------------------------------------------------------------------||
||---2-2-2-2-2-2-2-2/4-4-4-4-4-4-4-4/7-7-7-7-7-7-7-7/9-9-9-9-9-9-9-9-9---|| x4 
||---2-2-2-2-2-2-2-2/4-4-4-4-4-4-4-4/7-7-7-7-7-7-7-7/9-9-9-9-9-9-9-9-9---||
||---0-0-0-0-0-0-0-0/2-2-2-2-2-2-2-2/5-5-5-5-5-5-5-5/7-7-7-7-7-7-7-7-7---||

||-----------------------------------------||
||-----------------------------------------||
||-----------------------------------------||
||---8/9-9-9-9-9-9-9-9---8-9-9-9-9-9--9-7--|| x2
||---6/7-7-7-7-7-7-7-7---6/7-7-7-7-7--9-7--||
||------------------------------------7-5--||


tabbed : ben jaeger 
Tap to rate this tab
# A B C D E F G H I J K L M N O P Q R S T U V W X Y Z