Song name
# A B C D E F G H I J K L M N O P Q R S T U V W X Y Z

Lit - Everythings Cool tab

----------------------------------------------------------------------------
		         Everything's Cool- Lit
----------------------------------------------------------------------------


Tuning: standard

(0:01)intro: 3x 
          PMPMPMPM   PMPMPMPMPMPMPMPM
e|--------------------------------------------------|
B|--------------------------------------------------|
G|--3-3---------------------------------------------|
D|--4-4----6-6-6-6----9-9-9-9-9-9-9-9---------------|
A|--4-4----6-6-6-6----9-9-9-9-9-9-9-9---------------|
E|--2-2----4-4-4-4----7-7-7-7-7-7-7-7---------------|

(0:11)Right after the third intro hit this:
e|--------------------------------------------------|
B|--------------------------------------------------|
G|--7---7-6-----------------------------------------|
D|--7---7-6-----------------------------------------|
A|--5---5-4-----------------------------------------|
E|--------------------------------------------------|

(0:14)Rythem (play 4x)
e|--------------------------------------------------|
B|--------------------------------------------------|
G|--------11-11-11--6-6-6-6-6-6-6-6-----------------|
D|--11-11-11-11-11--6-6-6-6-6-6-6-6-----------------|
A|---9--9--9--9--9--4-4-4-4-4-4-4-4-----------------|
E|--------------------------------------------------|

(0:21)Lead (Hit this after the 2nd round of power chords)
e|--------------------------------------------------|
B|--------------------------------------------------|
G|--------------------------------------------------|
D|--------------------------------------------------|
A|-----9-8-9-8-6-4--6-4-6-4-----9-8-9-8-6-4--2------|
E|--6------------------------6----------------------|

(0:28)  2x (Palm mute the first two strokes of each PC)
e|--------------------------------------------------|
B|--------------------------------------------------|
G|--------4-4-4---------4-4-4---------4-4-4---6-6-4-|
D|-4-4-4--4-4-4--4-4-4--4-4-4--4-4-4--4-4-4---6-6-4-|
A|-4-4-4--2-2-2--4-4-4--2-2-2--4-4-4--2-2-2---4-4-2-|
E|-2-2-2---------2-2-2---------2-2-2----------------|

(0:41)  2x (This time play every stroke clearly)
e|----------------------------------------------------------|
B|----------------------------------------------------------|
G|--------4-4-4---------4-4-4---------4-4-4---6-6-6-4-4-4-4-|
D|-4-4-4--4-4-4--4-4-4--4-4-4--4-4-4--4-4-4---6-6-6-4-4-4-4-|
A|-4-4-4--2-2-2--4-4-4--2-2-2--4-4-4--2-2-2---4-4-4-2-2-2-2-|
E|-2-2-2---------2-2-2---------2-2-2------------------------|

(0:55) 1x (At end of 2nd round of PC's, let this ring)
e|-----|
B|-----|
G|--4--|
D|--4--|
A|--2--|
E|-----|

(0:58) (No palm mutes this time) 3x
e|--------------------------------------------------|
B|--------------------------------------------------|
G|--3-3---------------------------------------------|
D|--4-4----6-6-6-6----9-9-9-9-9-9-9-9---------------|
A|--4-4----6-6-6-6----9-9-9-9-9-9-9-9---------------|
E|--2-2----4-4-4-4----7-7-7-7-7-7-7-7---------------|

(1:08)
e|--------------------------------------------------|
B|--------------------------------------------------|
G|--7-7-7-7-7-7-7-7--6------------------------------|
D|--7-7-7-7-7-7-7-7--6------------------------------|
A|--5-5-5-5-5-5-5-5--4------------------------------|
E|--------------------------------------------------|

(1:12) Lead 1x
e|--------------------------------------------------|
B|--------------------------------------------------|
G|--------------------------------------------------|
D|--------------------------------------------------|
A|-----9-8-9-8-6-4--6-4-6-4-----9-8-9-8-6-4--2------|
E|--6------------------------6----------------------|

(1:12) Rythem 2x
e|--------------------------------------------------|
B|--------------------------------------------------|
G|--------11-11-11--6-6-6-6-6-6-6-6-----------------|
D|--11-11-11-11-11--6-6-6-6-6-6-6-6-----------------|
A|---9--9--9--9--9--4-4-4-4-4-4-4-4-----------------|
E|--------------------------------------------------|

(1:18) 2x (Palm mute the first two strokes of each PC)
e|--------------------------------------------------|
B|--------------------------------------------------|
G|--------4-4-4---------4-4-4---------4-4-4---6-6-4-|
D|-4-4-4--4-4-4--4-4-4--4-4-4--4-4-4--4-4-4---6-6-4-|
A|-4-4-4--2-2-2--4-4-4--2-2-2--4-4-4--2-2-2---4-4-2-|
E|-2-2-2---------2-2-2---------2-2-2----------------|

(1:32) 1x (At end of 2nd round of PC's, let this ring)
e|-----|
B|-----|
G|--4--|
D|--4--|
A|--2--|
E|-----|

(1:35) 3x
e|--------------------------------------------------|
B|--------------------------------------------------|
G|--3-3---------------------------------------------|
D|--4-4----6-6-6-6----9-9-9-9-9-9-9-9---------------|
A|--4-4----6-6-6-6----9-9-9-9-9-9-9-9---------------|
E|--2-2----4-4-4-4----7-7-7-7-7-7-7-7---------------|

(1:45)
e|--------------------------------------------------|
B|--------------------------------------------------|
G|--7-7-7-7-7-7-7-7--6-6-6-6-6-6-6-6----------------|
D|--7-7-7-7-7-7-7-7--6-6-6-6-6-6-6-6----------------|
A|--5-5-5-5-5-5-5-5--4-4-4-4-4-4-4-4----------------|
E|--------------------------------------------------|

(1:49) solo pt 1
e|----------------------------------------------------|
B|----------------------------------------------------|
G|--11-9-11-8-11-8-7-11-7-6---11-9-11-8-11-8-7-11-7-?-|
D|----------------------------------------------------|
A|----------------------------------------------------|
E|----------------------------------------------------|

(1:56) solo pt 2
e|--14-12-14-11-14-11-10-14-10-9--------------------|
B|--------------------------------------------------|
G|--------------------------------------------------|
D|--------------------------------------------------|
A|--------------------------------------------------|
E|--------------------------------------------------|

(1:59) solo pt 3
e|--------------------------------------------------|
B|--------------------------------------------------|
G|--14-15^17-15-14-15-17--11-9-8-7-6-4--------------|
D|-------------------------------------4------------|
A|--------------------------------------------------|
E|--------------------------------------------------|

(2:09) This part is just bass and drums but if you're playing alone, play:2x
e|--------------------------------------------------|
B|--------------------------------------------------|
G|--------4-4-4---------4-4-4---------4-4-4---6-6-4-|
D|-4-4-4--4-4-4--4-4-4--4-4-4--4-4-4--4-4-4---6-6-4-|
A|-4-4-4--2-2-2--4-4-4--2-2-2--4-4-4--2-2-2---4-4-2-|
E|-2-2-2---------2-2-2---------2-2-2----------------|

(2:23) 1x (At end of 2nd round of PC's, let this ring)
e|-----|
B|-----|
G|--4--|
D|--4--|
A|--2--|
E|-----|

(2:26) 3x
e|--------------------------------------------------|
B|--------------------------------------------------|
G|--3-3---------------------------------------------|
D|--4-4----6-6-6-6----9-9-9-9-9-9-9-9---------------|
A|--4-4----6-6-6-6----9-9-9-9-9-9-9-9---------------|
E|--2-2----4-4-4-4----7-7-7-7-7-7-7-7---------------|

(2:36)
e|--------------------------------------------------|
B|--------------------------------------------------|
G|--7-7-7-7-7-7-7-7--6-6-6-6-6-6-6-6----------------|
D|--7-7-7-7-7-7-7-7--6-6-6-6-6-6-6-6----------------|
A|--5-5-5-5-5-5-5-5--4-4-4-4-4-4-4-4----------------|
E|--------------------------------------------------|

(2:40) Lead 2x
e|--------------------------------------------------|
B|--------------------------------------------------|
G|--------------------------------------------------|
D|--------------------------------------------------|
A|-----9-8-9-8-6-4--6-4-6-4-----9-8-9-8-6-4--2------|
E|--6------------------------6----------------------|

(2:40) Rythem 4x
e|--------------------------------------------------|
B|--------------------------------------------------|
G|--------11-11-11--6-6-6-6-6-6-6-6-----------------|
D|--11-11-11-11-11--6-6-6-6-6-6-6-6-----------------|
A|---9--9--9--9--9--4-4-4-4-4-4-4-4-----------------|
E|--------------------------------------------------|


Lyrics:

I hit the city by 3
And the bottle by 4
I'm thinkin about the shit that I pulled the night before
And by the party at midnight everything is cool again
Cuz you'll be back with me then

I'm carryin the weight 
The weight of the world
That doesn't wanna wait for me
It spins me all around
And then it spits me out
Recycled like a Christmas tree

You picked me up when no one would
Convince me baby its all good
You're doing it again the way you always could
And now everything is understood
I never had a girl like this

I hit the city by 3
And the bottle by 4
Im thinkin about the shit that I pulled the night before
And by the party at midnight everything is cool again
Cuz you'll be back with me then

the walls are closing in its closing time again
I see it through my champagne glasses
Terrified of how the time is flyin now
At least we're sittin in first class
Never wanna be like them

I hit the city by 3
And the bottle by 4
I'm thinkin about the shit that I pulled the night before
And by the party at midnight everything is cool again
Cuz you'll be back with me then

I'm carryin the weight of the world 
That doesnt wanna wait for me
I'm carryin the weight of the world
Your carrying me
I never had a girl like this

I hit the bottle by 6 and another cigarette
Are probably 2 things that I know i should be quittin
Any by the party at midnight everything is cool by then
Cuz you'll be back with me then [3x]
Tap to rate this tab
# A B C D E F G H I J K L M N O P Q R S T U V W X Y Z