Song name
# A B C D E F G H I J K L M N O P Q R S T U V W X Y Z

Lita Ford - Falling In And Out Of Love tab

Help us improve GuitareTab! Take a short survey!
-----------------------------------------------------------------------
			     Falling In and Out of Love - Lita Ford
-----------------------------------------------------------------------
Tabbed by: Spence (Alex's Disciple)
Email: pointgodspence@hotmail.com

Tuning: Standard

Just one guitar for the intro that plays with the keyboard:


e|----------------------------8-7-------8--7----------------------------|
B|--8br-----------------10~--------10~--------10--8b~-------------------|
G|-------7-7-5-7b~--------------------------------------7bp5~-----------|
D|----------------------------------------------------------------------|
A|----------------------------------------------------------------------|
E|----------------------------------------------------------------------|

e|-----------------------------5-------------------------------------|
B|--8bp5-------------------------8p5---------------------8b~r--5-----|
G|-------7bp5-7~--------5--7b--------8p7p5---5-7b--5---5---------7b~-|
D|------------------5h7--------------------7---------7---------------|
A|-------------------------------------------------------------------|
E|-------------------------------------------------------------------|
                                                  Pick Slide
e|---------------------------------------------------------------------|
B|---------------------------------------------------------------------|
G|-5---7p5---------------5-7~-5-7b+-7+~--5+-7b~------------------------|
D|---7-----7-5-7~----5h7-----------------------------------------------|
A|-------------------------------------------------XX\\----------------|
E|-------------------------------------------------XX\\----------------|

Enter drums and rhythm guitar

e|-5-----------12-----------17---------------------------------------|
B|-8b~---------15b~---------20b~-------------------------------------|
G|-------------------------------------------------------------------|
D|-------------------------------------------------------------------|
A|-------------------------------------------------------------------|
E|-------------------------------------------------------------------|


e|-----------------------------------------------------------------------|
B|-----------------------------------------------------------------------|
G|-19brp17-19brp17-----17-19-19b-19p17-19-19b-19-19-19p17----------------|
D|-----------------19-------------------------------------17-17-19p17----|
A|-----------------------------------------------------------------------|
E|-----------------------------------------------------------------------|

e|-------------------------------------------------------------------|
B|-------------------------------------------------------------------|
G|-19b-17----------17------------------------------------------------|
D|--------19p17-19----19p17-17p15------------------------------------|
A|--------------------------------17p15------------------------------|
E|--------------------------------------17~--------------------------|

Enter voice

Verse: x2

We've changed, a new change of season. Autumn came, we went, I went insane
Never was winter so cold. Look away from the homeward road
e|---------------------------------------------------------------------|
B|-----------------------------------------------3---------------------|
G|--2---------5----------------2-2-----2---------2----------------2-2--|
D|--2---------5--------5-------2-2-----2---------0--------5-------2-2--|
A|--0---------3--------5-------0-0-----0------------------5-------0-0--|
E|---------------------3----------------------------------3------------|

Bridge: x2

I'm feeling love in a day dream. Making love first morning light.
Walking slowly in the summer rain. All I lone, I fantasize
e|------------------------------------------------------------------------|
B|--6------------8-------------10----------6-----------8-----------10-----|
G|--5------------7-------------9-----------5-----------7-----------9------|
D|--3------------5-------------7-----------3-----------5-----------7------|
A|------------------------------------------------------------------------|
E|------------------------------------------------------------------------|

Chorus

    Falling in and out of love
    Falling in and out of love
    Slip inside my dream, dream away with me

e|-------------------------------------------------------------------|
B|-------------------------------------------------------------------|
G|---------------------2-------2-----------2-------------------------|X3
D|--3---------5--------2-------2-----------2-------------------------|
A|--3---------5--------0---0-0-0---0-0-0-0-0-------------------------|
E|--1---------3------------------------------------------------------|

    'Cause I'm falling in and out of love
e|-------------------------------------------------------------------|
B|-------------------------------------------------------------------|
G|-------------------------------------------------------------------|
D|--3-------3/5---5--------------------------------------------------|
A|--3-------3/5---5--------------------------------------------------|
E|--1-------1/3---3--------------------------------------------------|

    Fill
e|-------------------------------------------------------------------|
B|--------------13-15-15br-13----------------------------------------|
G|--2-2--2---14--------------14~--2-2--2--7b-5-7b-5-7b-5-7b----------|
D|--2-2--2------------------------2-2--2-----------------------------|
A|--0-0--0------------------------0-0--0-----------------------------|
E|------3-----------------------------3------------------------------|

e|---------5---------------------------------------------------------|
B|----8b~----8-5-----------------------------------------------------|
G|--5-----------8-7-5---5h7p5---5------------------------------------|
D|--------------------7-------7---7p5--------------------------------|
A|------------------------------------7p5----------------------------|
E|----------------------------------------7p5-5~---------------------|

Verse: x2

Like a diamond, never our love would break. But in heartbeat, throwing us both away
Set me free to live my life like a rolling stone. Look away from the homeward road
e|---------------------------------------------------------------------|
B|-----------------------------------------------3---------------------|
G|--2---------5----------------2-2-----2---------2----------------2-2--|
D|--2---------5--------5-------2-2-----2---------0--------5-------2-2--|
A|--0---------3--------5-------0-0-----0------------------5-------0-0--|
E|---------------------3----------------------------------3------------|

Bridge: x2

I'm feeling love in a day dream. Making love first morning light.
Walking slowly in the summer rain. All I lone, I fantasize
e|------------------------------------------------------------------------|
B|--6------------8-------------10----------6-----------8-----------10-----|
G|--5------------7-------------9-----------5-----------7-----------9------|
D|--3------------5-------------7-----------3-----------5-----------7------|
A|------------------------------------------------------------------------|
E|------------------------------------------------------------------------|

Chorus

    Falling in and out of love
    Falling in and out of love
    Slip inside my dream, dream away with me

e|-------------------------------------------------------------------|
B|-------------------------------------------------------------------|
G|---------------------2-------2-----------2-------------------------|X3
D|--3---------5--------2-------2-----------2-------------------------|
A|--3---------5--------0---0-0-0---0-0-0-0-0-------------------------|
E|--1---------3------------------------------------------------------|

    'Cause I'm falling
e|-------------------------------------------------------------------|
B|-------------------------------------------------------------------|
G|-------------------------------------------------------------------|
D|--3----------------------------------------------------------------|
A|--3----------------------------------------------------------------|
E|--1----------------------------------------------------------------|

Keyboards enter again and Lita plays this:

e|----------------8----------7h8-10~---7---8p7p5h7h8---5----------------|
B|-------------10---10~---10-------------------------8---8p7p5h7p5------|
G|--7br-5---------------------------------------------------------------|
D|--------7~------------------------------------------------------------|
A|----------------------------------------------------------------------|
E|----------------------------------------------------------------------|

e|---------------------------------------------------------------------|
B|-----5h8p7p5---------------------------------------------------------|
G|--7----------7p5p4-7p5p4---4h5p4-------------------------------------|
D|-------------------------7-------7-5p7h5---5-------------------------|
A|-----------------------------------------7---5p3---5p3---3-----------|
E|-------------------------------------------------5-----5---5p3---5~--|

e|-----5----5----5----5------------8-10-10b~-10p8h10p8----8h10p8-----|
B|--8b---8b---8b---8b---8b~---8/10---------------------10------------|
G|-------------------------------------------------------------------|
D|-------------------------------------------------------------------|
A|-------------------------------------------------------------------|
E|-------------------------------------------------------------------|

e|----8h10p8h10----8h10p8----8h10p8--10b-8--------------------------------|
B|-10-----------10--------10---------------10~----------------------------|
G|--------------------------------------------------5-5-5-5-5-----5h7-----|
D|----------------------------------------------5h7-----------5h7-----7~--|
A|------------------------------------------------------------------------|
E|------------------------------------------------------------------------|

e|--------------8---------5h8p5-------5h8p5--------------------------|
B|--8b--5--8/10---10~-----------5h8p5-------5h8p5--------------------|
G|-------7----------------------------------------7p5----------------|
D|----------------------------------------------------7~-------------|
A|-------------------------------------------------------------------|
E|-------------------------------------------------------------------|

The next bunch is very tough to hear.
Just do a one bar improv for each part but end on the (7) A,
when she plays it live, Lita improvs almost this entire section.
Two bars before the outro, Lita plays this:

e|----------------------------------------------------------------------|
B|------------------------------------------------------------------20b-|
G|-----17-19-19b-17-19br-17----17-19b-19p17----17-19b-17-----17-17------|
D|--19----------------------19--------------19-----------19-------------|
A|----------------------------------------------------------------------|
E|----------------------------------------------------------------------|

Outro: I love this section, it sounds great and goes like this:

e|---------------------------------17-17-17----17-17-17--------------|
B|-20b-20-20-17-20~--20b-20b~---20----------20-----------------------|
G|-------------------------------------------------------------------|
D|-------------------------------------------------------------------|
A|-------------------------------------------------------------------|
E|-------------------------------------------------------------------|
                                 Pick Slide
e|-------------------------------------------------------------------|
B|-20b-20-20-17-20~----20b-------------------------------------------|
G|--------------------------19b--------------------------------------|
D|-------------------------------------------------------------------|
A|---------------------------------X\\-------------------------------|
E|---------------------------------X\\-------------------------------|

e|-------------------------------------------------------------------|
B|-20b-20-20-17-20~--20b-20b~----------------------------------------|
G|-----------------------------19b-17-19b-17-19b--19p17-19p17--------|
D|------------------------------------------------------------19-----|
A|-------------------------------------------------------------------|
E|-------------------------------------------------------------------|

The song fades with that, just keep doing that same repeating part and improv with 17 box.
When she plays it live, Lita finishes on (19) A and then finish with the A power chord.

ENJOY LITA!!

Just drop me a quick note anytime on email or on this account for any requests.


| /  slide up
| \  slide down
| h  hammer-on
| p  pull-off
| ~  vibrato
| +  harmonic
| x  Mute note
| b  Bend String
| r   Release Bend
===============================================================================
Related for Falling In And Out Of Love tab