Song name
# A B C D E F G H I J K L M N O P Q R S T U V W X Y Z

Lita Ford - Cant Catch Me tab

Lita Ford - Can't Catch Me

Intro
e|--------------------------------------------------------------------|
b|--------------------------------------------------------------------|
g|--------------------------------------------------------------------|
d|--4-----------------2--4--4-----------------0-----0--1--0--1--2--4--|
a|--4--2--3--4--3--4--------4--2--3--4--3--4-----4--------------------|
E|--2-----------------------2-----------------------------------------|
Pm  .                       .

PreChorus
e|-----------|
b|-----------|
g|-----------|
d|--9--7--4--|
a|--9--7--4--|
E|--7--5--2--|

Chorus
e|--------|--------------------------------|
b|--------|--------------------------------|
g|--------|--------7-----------------------|
d|--4--2--|--4--2--7-----------------------|
a|--4--2--|--4--2--5--2--3--2--0-----------|
E|--2--0--|--2--0-----------------3--0--2--|
Pm  .

Solo
e|-----------|
b|-----------|
g|-----------|
d|--4--5--2--|
a|--4--5--2--|
E|--2--3--0--|

Outro
e|--------------------|-----|
b|--------------------|-----|
g|--------------------|-----|
d|--------------------|--4--|
a|--2--3--2--0--------|--4--|
E|--------------3--0--|--2--|
Tap to rate this tab
 
# A B C D E F G H I J K L M N O P Q R S T U V W X Y Z