Song name
# A B C D E F G H I J K L M N O P Q R S T U V W X Y Z

Lite - I Walk tab

I know, it's obvious and easy as a pie. submitting it just for fun :D

tuned down half step

D#-----3-----3-----3-----3-----0-----0-----0-----0-|
A#-------------------------------------------------|
F#---2-----2-----2-----2-----2-----2-----2-----2---| X3
C#-3-----3-----3-----3-----2-----2-----2-----2-----| 
G#-------------------------------------------------|
D#-------------------------------------------------|


D#-----3-----3-----3-----3---------0-------|
A#-------------------------------0---0-----|
F#---2-----2-----2-----2-------2-------2---|
C#-3-----3-----3-----3-------2-----------2-| 
G#-------------------------0---------------|
D#-----------------------------------------|


prooflink:
http://lite-web.com/news-en/
Tap to rate this tab
 
# A B C D E F G H I J K L M N O P Q R S T U V W X Y Z