Song name
# A B C D E F G H I J K L M N O P Q R S T U V W X Y Z

Lite - Ghost Dance tab

Guitar 1:
E|------------------------------------|
B|------------------------------------|
G|---------11-------------------------|
D|------9---------11--------11--------|
A|--10---------9---------9------9-----|
E|--------------------7------------7--|

Guitar 2:
E|---------------------------------|
B|--------10-----------------------|
G|-----7---------9--------9--6-----|
D|--9---------7--------7--------7--|
A|------------------9--------------|
E|---------------------------------|


That's all for now.
Tap to rate this tab
# A B C D E F G H I J K L M N O P Q R S T U V W X Y Z