Song name
# A B C D E F G H I J K L M N O P Q R S T U V W X Y Z

Lite - Interlude tab

-------------------------------------------------------------------------------
                             Interlude - Lite
-------------------------------------------------------------------------------
Tabbed by: Pegleg Seaking
E-mail: liam11111@hotmail.com
Twitter: https://twitter.com/peglegseaking
Soundcloud: https://soundcloud.com/peglegseaking  

Tuning: Standard. 

A nice track that pops up in Lite's 2nd album released in 2008 which is entitled 
'Phantasia'. Album version performed on acoustic guitar. 

Running order of track:

Intro   -    (1), (2). [0.10 - 0.22]

Verse 1 -    (1), (1), (1), (3) [0.22 - 0.46]

Verse 2 -    (1), (3), (1), (2) [0.47 - 1.11]

End Chord: D

(1)

e|----10-9---------------|---------9----------|
B|------------10h12------|---10------10-------|
G|---------11-------9h11-|------11------11----|
D|-0---------------------|-0------------------|
A|-----------------------|--------------------|
E|-----------------------|--------------------|

(2)

e|----10-9---------------|--------12---9------|
B|------------10h12------|---10--------10-----|
G|---------11-------9h11-|-------------11-----|
D|-0---------------------|-0----0----0--------|
A|-----------------------|--------------------|
E|-----------------------|--------------------|

(3)

e|----10-9---------------|-------12-----------|
B|------------10h12------|---10-----10--10----|
G|---------11-------9h11-|-----11-----11------|
D|-0---------------------|-0------------------|
A|-----------------------|--------------------|
E|-----------------------|--------------------|

Bass/Piano Chords:

D, B#, G, F/D.

************************************

| /   slide up
| \   slide down
| h   hammer-on

************************************
Tap to rate this tab
# A B C D E F G H I J K L M N O P Q R S T U V W X Y Z